  0
SECTION
  2
HEADER
  9
$ACADVER
  1
AC1009
  9
$INSBASE
 10
0
 20
0
 30
0
  9
$EXTMIN
 10
0
 20
0
  9
$EXTMAX
 10
42000
 20
29700
  9
$LIMMIN
 10
0
 20
0
  9
$LIMMAX
 10
42000
 20
29700
  9
$LTSCALE
 40
100
  0
ENDSEC
  0
SECTION
  2
TABLES
  0
TABLE
  2
LTYPE
 70
     9
  0
LTYPE
  2
CONTINUOUS
 70
    64
  3
実線
 72
    65
 73
     0
 40
0.0
  0
LTYPE
  2
DASHED1
 70
    64
  3
--  --  --  --  --  --  --  --  
 72
    65
 73
     2
 40
2.5
 49
1.25
 49
-1.25
  0
LTYPE
  2
DASHED2
 70
    64
  3
----    ----    ----    ----    
 72
    65
 73
     2
 40
5.0
 49
2.5
 49
-2.5
  0
LTYPE
  2
DASHED3
 70
    64
  3
------  ------  ------  ------  
 72
    65
 73
     2
 40
5.0
 49
3.75
 49
-1.25
  0
LTYPE
  2
CENTER1
 70
    64
  3
----- - ----- - ----- - ----- - 
 72
    65
 73
     4
 40
10.0
 49
6.25
 49
-1.25
 49
1.25
 49
-1.25
  0
LTYPE
  2
CENTER2
 70
    64
  3
----------  --  ----------  --  
 72
    65
 73
     4
 40
20.0
 49
12.5
 49
-2.5
 49
2.5
 49
-2.5
  0
LTYPE
  2
PHANTOM1
 70
    64
  3
--- - - --- - - --- - - --- - - 
 72
    65
 73
     6
 40
10.0
 49
3.25
 49
-1.25
 49
1.25
 49
-1.25
 49
1.25
 49
-1.25
  0
LTYPE
  2
PHANTOM2
 70
    64
  3
--------  -  -  --------  -  -  
 72
    65
 73
     6
 40
20.0
 49
10.0
 49
-2.5
 49
1.25
 49
-2.5
 49
1.25
 49
-2.5
  0
LTYPE
  2
DOT
 70
    64
  3
-   -   -   -   -   -   -   -   
 72
    65
 73
     2
 40
2.5
 49
0.625
 49
-1.875
  0
LTYPE
  2
DUMMY
 70
    64
  3
ダミー
 72
    65
 73
     0
 40
0.0
  0
LTYPE
  2
RAND1
 70
    64
  3
ランダム線1
 72
    65
 73
     4
 40
10.0
 49
1.0
 49
-2.0
 49
3.0
 49
-4.0
  0
LTYPE
  2
RAND2
 70
    64
  3
ランダム線2
 72
    65
 73
     4
 40
14.0
 49
2.0
 49
-3.0
 49
4.0
 49
-5.0
  0
LTYPE
  2
RAND3
 70
    64
  3
ランダム線3
 72
    65
 73
     4
 40
18.0
 49
3.0
 49
-4.0
 49
5.0
 49
-6.0
  0
LTYPE
  2
RAND4
 70
    64
  3
ランダム線4
 72
    65
 73
     4
 40
22.0
 49
4.0
 49
-5.0
 49
6.0
 49
-7.0
  0
LTYPE
  2
RAND5
 70
    64
  3
ランダム線5
 72
    65
 73
     4
 40
26.0
 49
5.0
 49
-6.0
 49
7.0
 49
-8.0
  0
LTYPE
  2
LONG1
 70
    64
  3
----------  --  ----------  --  
 72
    65
 73
     4
 40
40.0
 49
32.5
 49
-2.5
 49
2.5
 49
-2.5
  0
LTYPE
  2
LONG2
 70
    64
  3
--------  -  -  --------  -  -  
 72
    65
 73
     6
 40
40.0
 49
30.0
 49
-2.5
 49
1.25
 49
-2.5
 49
1.25
 49
-2.5
  0
LTYPE
  2
LONG3
 70
    64
  3
+++++++++++++++..+++++++++++++++
 72
    65
 73
     2
 40
40.0
 49
37.5
 49
-2.5
  0
LTYPE
  2
LONG4
 70
    64
  3
+++++++++++++++..+++++++++++++++
 72
    65
 73
     2
 40
80.0
 49
75.0
 49
-5.0
  0
LTYPE
  2
LONG5
 70
    64
  3
----------  --  ----------  --  
 72
    65
 73
     4
 40
60.0
 49
37.5
 49
-7.5
 49
7.5
 49
-7.5
  0
LTYPE
  2
dashed
 70
   64
  3
-------   -------------   ------
 72
   65
 73
    2
 40
7.5
 49
6
 49
-1.5
  0
LTYPE
  2
dashed_spaced
 70
   64
  3
----        --------        ----
 72
   65
 73
    2
 40
12
 49
6
 49
-6
  0
LTYPE
  2
long_dashed_dotted
 70
   64
  3
------------- --- --------------
 72
   65
 73
    4
 40
15.25
 49
12
 49
-1.5
 49
0.25
 49
-1.5
  0
LTYPE
  2
long_dashed_double-dotted
 70
   64
  3
----------- --- --- ------------
 72
   65
 73
    6
 40
17
 49
12
 49
-1.5
 49
0.25
 49
-1.5
 49
0.25
 49
-1.5
  0
LTYPE
  2
long_dashed_triplicate-dotted
 70
   64
  3
--------- --- --- --- ----------
 72
   65
 73
    8
 40
18.75
 49
12
 49
-1.5
 49
0.25
 49
-1.5
 49
0.25
 49
-1.5
 49
0.25
 49
-1.5
  0
LTYPE
  2
dotted
 70
   64
  3
   -       -       -       -    
 72
   65
 73
    2
 40
1.75
 49
0.25
 49
-1.5
  0
LTYPE
  2
chain
 70
   64
  3
-------------- -- --------------
 72
   65
 73
    4
 40
18.5
 49
12
 49
-1.5
 49
3.5
 49
-1.5
  0
LTYPE
  2
chain_double_dash
 70
   64
  3
------------ -- -- -------------
 72
   65
 73
    6
 40
23.5
 49
12
 49
-1.5
 49
3.5
 49
-1.5
 49
3.5
 49
-1.5
  0
LTYPE
  2
dashed_dotted
 70
   64
  3
-----------     -     ----------
 72
   65
 73
    4
 40
9.25
 49
6
 49
-1.5
 49
0.25
 49
-1.5
  0
LTYPE
  2
double-dashed_dotted
 70
   64
  3
------   -----------   -   -----
 72
   65
 73
    6
 40
16.75
 49
6
 49
-1.5
 49
6
 49
-1.5
 49
0.25
 49
-1.5
  0
LTYPE
  2
dashed_double-dotted
 70
   64
  3
---------    -    -    ---------
 72
   65
 73
    6
 40
11
 49
6
 49
-1.5
 49
0.25
 49
-1.5
 49
0.25
 49
-1.5
  0
LTYPE
  2
double-dashed_double-dotted
 70
   64
  3
-----   ---------   -   -   ----
 72
   65
 73
    8
 40
18.5
 49
6
 49
-1.5
 49
6
 49
-1.5
 49
0.25
 49
-1.5
 49
0.25
 49
-1.5
  0
LTYPE
  2
dashed_triplicate-dotted
 70
   64
  3
-------    -    -    -    ------
 72
   65
 73
    8
 40
12.75
 49
6
 49
-1.5
 49
0.25
 49
-1.5
 49
0.25
 49
-1.5
 49
0.25
 49
-1.5
  0
LTYPE
  2
double-dashed_triplicate-dotted
 70
   64
  3
-----  ---------  -  -  -  -----
 72
   65
 73
   10
 40
20.25
 49
6
 49
-1.5
 49
6
 49
-1.5
 49
0.25
 49
-1.5
 49
0.25
 49
-1.5
 49
0.25
 49
-1.5
  0
LTYPE
  2
undefined
 70
   64
  3
--------------------------------
 72
   65
 73
    0
 40
0
  0
ENDTAB
  0
TABLE
  2
STYLE
  5
3
100
AcDbSymbolTable
 70
     1
  0
STYLE
  5
10
100
AcDbSymbolTableRecord
100
AcDbTextStyleTableRecord
  2
STANDARD
 70
     0
 40
0.0
 41
1.0
 50
0.0
 71
     0
 42
0.2
  3
txt
  4
bigfont.shx
  0
STYLE
  5
26
100
AcDbSymbolTableRecord
100
AcDbTextStyleTableRecord
  2
TATEGAKI
 70
    68
 40
0.0
 41
1.0
 50
0.0
 71
     0
 42
1.0
  3
txt
  4
bigfont.shx
  0
ENDTAB
  0
TABLE
  2
LAYER
 70
    9
  0
LAYER
  2
_0-0_
 70
   64
 62
    7
  6
CONTINUOUS
  0
LAYER
  2
_0-1_
 70
   64
 62
    7
  6
CONTINUOUS
  0
LAYER
  2
_0-2_
 70
   64
 62
    7
  6
CONTINUOUS
  0
LAYER
  2
_0-3_
 70
   64
 62
    7
  6
CONTINUOUS
  0
LAYER
  2
_0-4_
 70
   64
 62
    7
  6
CONTINUOUS
  0
LAYER
  2
_0-5_
 70
   64
 62
    7
  6
CONTINUOUS
  0
LAYER
  2
_1-5_
 70
   64
 62
    7
  6
CONTINUOUS
  0
LAYER
  2
_1-a_
 70
   64
 62
    7
  6
CONTINUOUS
  0
LAYER
  2
ADD_LINE
 70
   64
 62
    7
  6
CONTINUOUS
  0
ENDTAB
  0
ENDSEC
  0
SECTION
  2
BLOCKS
  0
ENDSEC
  0
SECTION
  2
ENTITIES
  0
LINE
  8
_0-4_
  6
CONTINUOUS
 62
    3
 10
16000
 20
4700
 11
16000
 21
14700
  0
LINE
  8
_0-1_
  6
CONTINUOUS
 62
    4
 10
11239.999999999998
 20
7381.539522252031
 11
12759.999999999998
 21
7381.539522252031
  0
LINE
  8
_0-1_
  6
CONTINUOUS
 62
    4
 10
11240
 20
4700
 11
11239.999999999998
 21
7381.539522252031
  0
LINE
  8
_0-1_
  6
CONTINUOUS
 62
    4
 10
12760
 20
4700
 11
12759.999999999998
 21
7381.539522252031
  0
LINE
  8
_0-1_
  6
CONTINUOUS
 62
    4
 10
11999.999999999998
 20
7381.539522252031
 11
12000
 21
4700
  0
LINE
  8
_0-1_
  6
CONTINUOUS
 62
    4
 10
11999.999999999998
 20
7381.539522252031
 11
11240
 21
4700
  0
LINE
  8
_0-1_
  6
CONTINUOUS
 62
    4
 10
12759.999999999998
 20
7381.539522252031
 11
12000
 21
4700
  0
LINE
  8
_0-1_
  6
CONTINUOUS
 62
    4
 10
11619.999999999998
 20
9161.539522252031
 11
11619.999999999998
 21
7381.539522252031
  0
LINE
  8
_0-1_
  6
CONTINUOUS
 62
    4
 10
11619.999999999996
 20
9161.539522252031
 11
12379.999999999996
 21
9161.539522252031
  0
LINE
  8
_0-1_
  6
CONTINUOUS
 62
    4
 10
12379.999999999998
 20
9161.539522252031
 11
12379.999999999998
 21
7381.539522252031
  0
LINE
  8
_0-1_
  6
CONTINUOUS
 62
    4
 10
12379.999999999998
 20
9161.539522252031
 11
11619.999999999998
 21
7381.539522252031
  0
LINE
  8
_0-1_
  6
CONTINUOUS
 62
    4
 10
11619.999999999998
 20
9161.539522252031
 11
11619.999999999998
 21
10549.231814247352
  0
LINE
  8
_0-1_
  6
CONTINUOUS
 62
    4
 10
12379.999999999996
 20
9161.539522252031
 11
12379.999999999996
 21
10549.231814247352
  0
LINE
  8
_0-1_
  6
CONTINUOUS
 62
    4
 10
15999.999999999995
 20
9359.7197249898018
 11
12389.13376232498
 21
10804.066220059816
  0
LINE
  8
_0-1_
  6
CONTINUOUS
 62
    4
 10
15999.999999999995
 20
9101.2318142473523
 11
12299.999999999996
 21
10581.231814247352
  0
LINE
  8
_0-2_
  6
DASHED1
 62
    7
 10
15999.999999999995
 20
9381.2603842183453
 11
12396.561575852063
 21
10822.635753877519
  0
LINE
  8
_0-1_
  6
CONTINUOUS
 62
    4
 10
12389.133762324975
 20
10804.066220059816
 11
12299.999999999984
 21
10581.23181424736
  0
LINE
  8
_0-3_
  6
CONTINUOUS
 62
    2
 10
12396.561575852062
 20
10822.635753877526
 11
12470.839711122886
 21
11008.331092054577
  0
LINE
  8
_0-1_
  6
CONTINUOUS
 62
    4
 10
11619.999999999996
 20
9161.539522252031
 11
11619.999999999996
 21
10549.231814247352
  0
LINE
  8
_0-3_
  6
CONTINUOUS
 62
    2
 10
12470.839711122886
 20
11008.331092054577
 11
16000
 21
9596.6669765037295
  0
LINE
  8
_0-3_
  6
DASHED3
 62
    4
 10
12433.700643487475
 20
10915.483422966048
 11
16000
 21
9488.963680361041
  0
LINE
  8
_0-1_
  6
CONTINUOUS
 62
    4
 10
12379.999999999998
 20
7533.5395222520301
 11
16000
 21
6085.5395222520247
  0
LINE
  8
_0-1_
  6
CONTINUOUS
 62
    4
 10
11619.999999999998
 20
7533.5395222520301
 11
8000
 21
6085.539522252031
  0
LINE
  8
_0-1_
  6
CONTINUOUS
 62
    4
 10
11610.866237675018
 20
10804.066220059816
 11
11700.000000000009
 21
10581.23181424736
  0
LINE
  8
_0-1_
  6
CONTINUOUS
 62
    4
 10
11610.866237675022
 20
10804.066220059816
 11
11700.000000000009
 21
10581.231814247345
  0
LINE
  8
_0-3_
  6
CONTINUOUS
 62
    2
 10
11603.438424147927
 20
10822.635753877526
 11
11529.160288877107
 21
11008.331092054577
  0
LINE
  8
_0-4_
  6
CONTINUOUS
 62
    3
 10
11538.082269866607
 20
11076.521862135996
 11
10005.202866096402
 21
10463.370100627901
  0
LINE
  8
_0-4_
  6
CONTINUOUS
 62
    3
 10
10012.630679623489
 20
10444.800566810205
 11
10105.478348712029
 21
10481.939634445618
  0
LINE
  8
_0-5_
  6
CONTINUOUS
 62
    7
 10
10083.624110012774
 20
10581.550680296212
 11
10105.907550594018
 21
10525.842078843096
  0
LINE
  8
_0-5_
  6
CONTINUOUS
 62
    7
 10
9979.6347206336341
 20
10841.524153744089
 11
10083.624110012774
 21
10581.550680296212
  0
LINE
  8
_0-4_
  6
CONTINUOUS
 62
    3
 10
10005.202866096402
 20
10463.370100627901
 11
10012.630679623489
 21
10444.800566810205
  0
LINE
  8
_0-4_
  6
CONTINUOUS
 62
    3
 10
12461.917730133382
 20
11076.521862135996
 11
13994.797133903587
 21
10463.370100627915
  0
LINE
  8
_0-4_
  6
CONTINUOUS
 62
    3
 10
13987.369320376501
 20
10444.800566810191
 11
13894.52165128796
 21
10481.939634445633
  0
LINE
  8
_0-5_
  6
CONTINUOUS
 62
    7
 10
14042.648719947601
 20
10897.232755197205
 11
11999.999999999998
 21
11714.292243176162
  0
LINE
  8
_0-5_
  6
CONTINUOUS
 62
    7
 10
14042.648719947601
 20
10897.232755197205
 11
14020.365279366353
 21
10841.524153744089
  0
LINE
  8
_0-5_
  6
CONTINUOUS
 62
    7
 10
13916.375889987215
 20
10581.550680296226
 11
13894.092449405971
 21
10525.842078843096
  0
LINE
  8
_0-5_
  6
CONTINUOUS
 62
    7
 10
14020.365279366353
 20
10841.524153744089
 11
13916.375889987215
 21
10581.550680296226
  0
LINE
  8
_0-5_
  6
CONTINUOUS
 62
    7
 10
12906.193250304028
 20
11287.192965368973
 11
12779.920420343644
 21
10971.51089046798
  0
LINE
  8
_0-5_
  6
DASHED1
 62
    4
 10
13593.266001559125
 20
11012.363864866958
 11
13489.276612179992
 21
10752.390391419081
  0
LINE
  8
_0-5_
  6
DASHED1
 62
    4
 10
13333.292528111253
 20
11116.353254246103
 11
13229.30313873211
 21
10856.379780798226
  0
LINE
  8
_0-4_
  6
CONTINUOUS
 62
    3
 10
13994.797133903587
 20
10463.370100627915
 11
13987.369320376501
 21
10444.800566810191
  0
LINE
  8
_0-5_
  6
CONTINUOUS
 62
    7
 10
14020.365279366353
 20
10841.524153744089
 11
11999.999999999989
 21
11649.670265490546
  0
LINE
  8
_0-5_
  6
DASHED1
 62
    4
 10
13575.934436662601
 20
10969.034952625647
 11
13315.960963214724
 21
11073.024342004799
  0
LINE
  8
_0-5_
  6
DASHED1
 62
    4
 10
13558.602871766076
 20
10925.706040384335
 11
13298.629398318199
 21
11029.695429763473
  0
LINE
  8
_0-5_
  6
DASHED1
 62
    4
 10
13541.271306869556
 20
10882.377128143022
 11
13281.297833421675
 21
10986.366517522169
  0
LINE
  8
_0-5_
  6
DASHED1
 62
    4
 10
13523.939741973032
 20
10839.048215901712
 11
13263.966268525155
 21
10943.037605280857
  0
LINE
  8
_0-5_
  6
DASHED1
 62
    4
 10
13506.608177076509
 20
10795.7193036604
 11
13246.634703628632
 21
10899.708693039545
  0
LINE
  8
_0-5_
  6
CONTINUOUS
 62
    7
 10
13916.375889987208
 20
10581.550680296226
 11
12802.203860924885
 21
11027.219491921096
  0
LINE
  8
_0-5_
  6
CONTINUOUS
 62
    7
 10
13894.092449405964
 20
10525.842078843096
 11
12779.920420343637
 21
10971.51089046798
  0
LINE
  8
_0-4_
  6
CONTINUOUS
 62
    3
 10
32000
 20
4700
 11
32000
 21
14700
  0
LINE
  8
_0-4_
  6
CONTINUOUS
 62
    3
 10
24000
 20
4700
 11
32000
 21
4700
  0
LINE
  8
_0-1_
  6
CONTINUOUS
 62
    4
 10
28714.916468996238
 20
8782.6191637363372
 11
24000
 21
6896.6525761378434
  0
LINE
  8
_0-1_
  6
CONTINUOUS
 62
    4
 10
28714.916468996238
 20
7813.2894984521254
 11
24000
 21
5927.3229108536325
  0
LINE
  8
_0-1_
  6
CONTINUOUS
 62
    4
 10
28325.78270667126
 20
8885.4535695487939
 11
24000
 21
7155.1404868802929
  0
LINE
  8
_0-1_
  6
CONTINUOUS
 62
    4
 10
28414.916468996238
 20
8662.6191637363372
 11
28325.78270667126
 21
8885.4535695487939
  0
LINE
  8
_0-3_
  6
CONTINUOUS
 62
    2
 10
28325.78270667126
 20
8885.4535695487939
 11
28244.076757873347
 21
9089.7184415435768
  0
LINE
  8
_0-3_
  6
CONTINUOUS
 62
    2
 10
24000
 20
7392.087738394257
 11
28244.076757873347
 21
9089.7184415435768
  0
LINE
  8
_0-3_
  6
DASHED3
 62
    4
 10
24000
 20
7284.3844422515385
 11
28281.21582550876
 21
8996.8707724550404
  0
LINE
  8
_0-2_
  6
DASHED1
 62
    7
 10
24000
 20
7176.6811461088291
 11
28318.354893144176
 21
8904.0231033664968
  0
LINE
  8
_0-3_
  6
CONTINUOUS
 62
    2
 10
28354.916468996242
 20
10685.631235635083
 11
28034.916468996242
 21
10685.631235635083
  0
LINE
  8
_0-4_
  6
CONTINUOUS
 62
    3
 10
24000
 20
4700
 11
24000
 21
14700
  0
LINE
  8
_0-5_
  6
CONTINUOUS
 62
    7
 10
9957.3512800523895
 20
10897.232755197205
 11
11999.999999999991
 21
11714.292243176162
  0
LINE
  8
_0-5_
  6
CONTINUOUS
 62
    7
 10
9957.3512800523895
 20
10897.232755197205
 11
9979.6347206336341
 21
10841.524153744089
  0
LINE
  8
_0-5_
  6
CONTINUOUS
 62
    7
 10
11093.806749695963
 20
11287.192965368973
 11
11220.079579656345
 21
10971.51089046798
  0
LINE
  8
_0-5_
  6
DASHED1
 62
    4
 10
10406.733998440861
 20
11012.363864866958
 11
10510.723387819999
 21
10752.390391419081
  0
LINE
  8
_0-5_
  6
DASHED1
 62
    4
 10
10666.707471888736
 20
11116.353254246103
 11
10770.696861267876
 21
10856.379780798226
  0
LINE
  8
_0-5_
  6
CONTINUOUS
 62
    7
 10
9979.6347206336341
 20
10841.524153744089
 11
11999.999999999996
 21
11649.670265490546
  0
LINE
  8
_0-5_
  6
DASHED1
 62
    4
 10
10424.065563337383
 20
10969.034952625647
 11
10684.039036785261
 21
11073.024342004786
  0
LINE
  8
_0-5_
  6
DASHED1
 62
    4
 10
10441.397128233904
 20
10925.706040384335
 11
10701.370601681783
 21
11029.695429763473
  0
LINE
  8
_0-5_
  6
DASHED1
 62
    4
 10
10458.728693130428
 20
10882.377128143022
 11
10718.702166578307
 21
10986.366517522169
  0
LINE
  8
_0-5_
  6
DASHED1
 62
    4
 10
10476.06025802695
 20
10839.048215901712
 11
10736.033731474829
 21
10943.037605280857
  0
LINE
  8
_0-5_
  6
DASHED1
 62
    4
 10
10493.391822923473
 20
10795.7193036604
 11
10753.36529637135
 21
10899.708693039545
  0
LINE
  8
_0-5_
  6
CONTINUOUS
 62
    7
 10
10083.624110012774
 20
10581.550680296212
 11
11197.796139075101
 21
11027.219491921096
  0
LINE
  8
_0-5_
  6
CONTINUOUS
 62
    7
 10
10105.907550594018
 20
10525.842078843096
 11
11220.079579656345
 21
10971.51089046798
  0
LINE
  8
_0-4_
  6
CONTINUOUS
 62
    3
 10
8000
 20
4700
 11
8000
 21
14700
  0
LINE
  8
_0-4_
  6
CONTINUOUS
 62
    3
 10
0
 20
4700
 11
0
 21
14700
  0
LINE
  8
_0-4_
  6
CONTINUOUS
 62
    3
 10
26435.404164028863
 20
8710.8999516624026
 11
28218.079410528553
 21
9423.9700502622873
  0
LINE
  8
_0-1_
  6
CONTINUOUS
 62
    4
 10
26572.818714279878
 20
8421.2152241061922
 11
26461.401511373653
 21
8699.7582313717721
  0
LINE
  8
_0-4_
  6
CONTINUOUS
 62
    3
 10
26168.002877053914
 20
8302.3702076728878
 11
26175.430690580994
 21
8283.8006738551849
  0
LINE
  8
_0-4_
  6
CONTINUOUS
 62
    3
 10
26168.002877053914
 20
8302.3702076728878
 11
26539.393553408012
 21
8450.9264782145401
  0
LINE
  8
_0-4_
  6
CONTINUOUS
 62
    3
 10
26539.393553408012
 20
8450.9264782145401
 11
26435.404164028863
 21
8710.8999516624026
  0
LINE
  8
_0-4_
  6
CONTINUOUS
 62
    3
 10
26175.430690580994
 20
8283.8006738551849
 11
26268.278359669519
 21
8320.939741490598
  0
LINE
  8
_0-1_
  6
CONTINUOUS
 62
    4
 10
26461.401511373653
 20
8699.7582313717721
 11
28132.659554967107
 21
9368.261448809164
  0
LINE
  8
_0-1_
  6
CONTINUOUS
 62
    4
 10
28244.076757873347
 20
9089.7184415435768
 11
28132.659554967107
 21
9368.261448809164
  0
LINE
  8
_0-1_
  6
CONTINUOUS
 62
    4
 10
28132.659554967107
 20
9368.261448809164
 11
26572.818714279878
 21
8421.2152241061922
  0
LINE
  8
_0-4_
  6
CONTINUOUS
 62
    3
 10
28694.916468996242
 20
10411.70926510531
 11
28694.916468996242
 21
12898.521347207008
  0
LINE
  8
_0-4_
  6
CONTINUOUS
 62
    3
 10
26180.825536695364
 20
8975.2597076141901
 11
26199.39507051307
 21
8982.6875211412771
  0
LINE
  8
_0-1_
  6
CONTINUOUS
 62
    4
 10
26169.683816404729
 20
9056.965656412096
 11
26058.266613498494
 21
9335.5086636776759
  0
LINE
  8
_0-4_
  6
CONTINUOUS
 62
    3
 10
26199.39507051307
 20
8982.6875211412771
 11
26162.256002877653
 21
9075.5351902298153
  0
LINE
  8
_0-4_
  6
CONTINUOUS
 62
    3
 10
26032.269266153715
 20
9346.6503839683064
 11
28694.916468996242
 21
10411.70926510531
  0
LINE
  8
_0-1_
  6
CONTINUOUS
 62
    4
 10
27840.941859998191
 20
9725.4688738494951
 11
27729.524657091959
 21
10004.011881115053
  0
LINE
  8
_0-1_
  6
CONTINUOUS
 62
    4
 10
26058.266613498494
 20
9335.5086636776759
 11
27729.524657091959
 21
10004.011881115053
  0
LINE
  8
_0-1_
  6
CONTINUOUS
 62
    4
 10
27729.524657091959
 20
10004.011881115053
 11
26169.683816404729
 21
9056.965656412096
  0
LINE
  8
_0-1_
  6
CONTINUOUS
 62
    4
 10
26169.683816404729
 20
9056.965656412096
 11
27840.941859998191
 21
9725.4688738494951
  0
LINE
  8
_0-1_
  6
CONTINUOUS
 62
    4
 10
28714.916468996238
 20
6773.2894984521263
 11
28714.916468996238
 21
7573.2894984521263
  0
LINE
  8
_0-1_
  6
CONTINUOUS
 62
    4
 10
28714.916468996238
 20
7453.2894984521263
 11
27814.916468996238
 21
5653.2894984521263
  0
LINE
  8
_0-1_
  6
CONTINUOUS
 62
    4
 10
27814.916468996238
 20
7453.2894984521263
 11
28714.916468996238
 21
7453.2894984521263
  0
LINE
  8
_0-1_
  6
CONTINUOUS
 62
    4
 10
27814.916468996238
 20
5653.2894984521263
 11
27814.916468996238
 21
7453.2894984521263
  0
LINE
  8
_0-1_
  6
CONTINUOUS
 62
    4
 10
27814.916468996238
 20
5653.2894984521263
 11
28714.916468996238
 21
5653.2894984521263
  0
LINE
  8
_0-4_
  6
CONTINUOUS
 62
    3
 10
40000
 20
4700
 11
40000
 21
14700
  0
LINE
  8
_0-4_
  6
CONTINUOUS
 62
    3
 10
32000
 20
4700
 11
40000
 21
4700
  0
LINE
  8
_0-1_
  6
CONTINUOUS
 62
    4
 10
34949.999999999985
 20
7625.7680820199894
 11
37049.999999999985
 21
7625.7680820199894
  0
LINE
  8
_0-1_
  6
CONTINUOUS
 62
    4
 10
34949.999999999985
 20
7625.7680820199894
 11
34949.999999999985
 21
9725.7680820199894
  0
LINE
  8
_0-1_
  6
CONTINUOUS
 62
    4
 10
34949.999999999985
 20
9725.7680820199894
 11
37049.999999999985
 21
9725.7680820199894
  0
LINE
  8
_0-1_
  6
CONTINUOUS
 62
    4
 10
37049.999999999985
 20
7625.7680820199894
 11
37049.999999999985
 21
9725.7680820199894
  0
LINE
  8
_0-1_
  6
CONTINUOUS
 62
    4
 10
37049.999999999985
 20
9725.7680820199894
 11
34949.999999999985
 21
7625.7680820199894
  0
LINE
  8
_0-1_
  6
CONTINUOUS
 62
    4
 10
37049.999999999985
 20
7625.7680820199894
 11
34949.999999999985
 21
9725.7680820199894
  0
LINE
  8
_0-2_
  6
DASHED1
 62
    7
 10
36396.561575852058
 20
11016.501686934367
 11
40000
 21
9575.1263172751933
  0
LINE
  8
_0-1_
  6
CONTINUOUS
 62
    4
 10
36389.133762324978
 20
10997.932153116664
 11
40000
 21
9553.585658046657
  0
LINE
  8
_0-1_
  6
CONTINUOUS
 62
    4
 10
35999.999999999985
 20
10895.0977473042
 11
40000
 21
9295.0977473042003
  0
LINE
  8
_0-1_
  6
CONTINUOUS
 62
    4
 10
35699.999999999985
 20
10775.097747304202
 11
35610.866237675007
 21
10997.932153116664
  0
LINE
  8
_0-2_
  6
DASHED1
 62
    7
 10
35603.438424147927
 20
11016.501686934367
 11
31999.999999999989
 21
9575.1263172751933
  0
LINE
  8
_0-1_
  6
CONTINUOUS
 62
    4
 10
35610.866237675007
 20
10997.932153116664
 11
31999.999999999989
 21
9553.585658046657
  0
LINE
  8
_0-1_
  6
CONTINUOUS
 62
    4
 10
35999.999999999985
 20
10895.0977473042
 11
31999.999999999989
 21
9295.0977473042003
  0
LINE
  8
_0-3_
  6
CONTINUOUS
 62
    4
 10
31999.999999999989
 20
10350.590049502556
 11
35419.030890073591
 21
11718.202405531993
  0
LINE
  8
_0-3_
  6
CONTINUOUS
 62
    4
 10
40000
 20
10350.590049502556
 11
36302.426102660815
 21
11829.619608438225
  0
LINE
  8
_0-1_
  6
CONTINUOUS
 62
    4
 10
36299.999999999985
 20
10775.097747304202
 11
36389.133762324978
 21
10997.932153116664
  0
LINE
  8
_0-1_
  6
CONTINUOUS
 62
    4
 10
38085.101349160519
 20
11439.659398266427
 11
36413.843305567054
 21
12108.162615703819
  0
LINE
  8
_0-1_
  6
CONTINUOUS
 62
    4
 10
36302.426102660829
 20
11829.619608438246
 11
38085.101349160519
 21
11439.659398266427
  0
LINE
  8
_0-1_
  6
CONTINUOUS
 62
    4
 10
37973.684146254287
 20
11161.116391000847
 11
38085.101349160519
 21
11439.659398266427
  0
LINE
  8
_0-1_
  6
CONTINUOUS
 62
    4
 10
36413.843305567054
 20
12108.162615703819
 11
36302.426102660815
 21
11829.619608438225
  0
LINE
  8
_0-1_
  6
CONTINUOUS
 62
    4
 10
33914.898650839466
 20
11439.659398266427
 11
35586.156694432932
 21
12108.162615703819
  0
LINE
  8
_0-1_
  6
CONTINUOUS
 62
    4
 10
35697.573897339156
 20
11829.619608438246
 11
33914.898650839466
 21
11439.659398266427
  0
LINE
  8
_0-1_
  6
CONTINUOUS
 62
    4
 10
34026.315853745698
 20
11161.116391000847
 11
33914.898650839466
 21
11439.659398266427
  0
LINE
  8
_0-1_
  6
CONTINUOUS
 62
    4
 10
35586.156694432932
 20
12108.162615703819
 11
35697.573897339171
 21
11829.619608438225
  0
LINE
  8
_0-1_
  6
CONTINUOUS
 62
    4
 10
35999.999999999985
 20
9925.7680820199894
 11
35499.999999999985
 21
9725.7680820199894
  0
LINE
  8
_0-1_
  6
CONTINUOUS
 62
    4
 10
34949.999999999985
 20
9505.7680820199894
 11
31999.999999999989
 21
8325.7680820199894
  0
LINE
  8
_0-1_
  6
CONTINUOUS
 62
    4
 10
35999.999999999985
 20
9925.7680820199894
 11
36499.999999999985
 21
9725.7680820199894
  0
LINE
  8
_0-1_
  6
CONTINUOUS
 62
    4
 10
37049.999999999985
 20
9505.7680820199894
 11
40000
 21
8325.7680820199894
  0
LINE
  8
_0-4_
  6
CONTINUOUS
 62
    3
 10
34230.580725740452
 20
10596.602562942622
 11
34195.812174452323
 21
10763.561728304516
  0
LINE
  8
_0-4_
  6
CONTINUOUS
 62
    3
 10
37769.419274259533
 20
10596.602562942622
 11
37804.187825547662
 21
10763.561728304516
  0
LINE
  8
_0-5_
  6
DASHED1
 62
    4
 10
27116.698591752334
 20
9320.8880506655842
 11
27376.672065200211
 21
9424.8774400447219
  0
LINE
  8
_0-5_
  6
DASHED1
 62
    4
 10
27134.030156648856
 20
9277.5591384242725
 11
27394.003630096733
 21
9381.5485278034103
  0
LINE
  8
_0-5_
  6
CONTINUOUS
 62
    7
 10
27786.439778110911
 20
9639.0460634089104
 11
27912.712608071299
 21
9323.3639885079174
  0
LINE
  8
_0-5_
  6
DASHED1
 62
    4
 10
27099.367026855809
 20
9364.2169629068958
 11
27203.356416234954
 21
9104.2434894590187
  0
LINE
  8
_0-5_
  6
DASHED1
 62
    4
 10
27359.34050030369
 20
9468.2063522860408
 11
27463.329889682824
 21
9208.2328788381637
  0
LINE
  8
_0-5_
  6
DASHED1
 62
    4
 10
27151.361721545378
 20
9234.2302261829609
 11
27411.335194993255
 21
9338.2196155621059
  0
LINE
  8
_0-5_
  6
DASHED1
 62
    4
 10
27168.693286441896
 20
9190.9013139416493
 11
27428.66675988978
 21
9294.8907033207943
  0
LINE
  8
_0-5_
  6
DASHED1
 62
    4
 10
27186.024851338425
 20
9147.5724017003395
 11
27445.998324786302
 21
9251.5617910794808
  0
LINE
  8
_0-5_
  6
CONTINUOUS
 62
    7
 10
26776.257138427725
 20
8933.4037783361473
 11
27890.429167490049
 21
9379.0725899610334
  0
LINE
  8
_0-5_
  6
CONTINUOUS
 62
    7
 10
26798.540579008972
 20
8877.6951768830331
 11
27912.712608071299
 21
9323.3639885079174
  0
LINE
  8
_0-5_
  6
CONTINUOUS
 62
    7
 10
26672.267749048588
 20
9193.3772517840262
 11
28714.916468996187
 21
10010.436739762976
  0
LINE
  8
_0-5_
  6
CONTINUOUS
 62
    7
 10
26649.984308467345
 20
9249.0858532371421
 11
26798.540579008972
 21
8877.6951768830331
  0
LINE
  8
_0-5_
  6
CONTINUOUS
 62
    7
 10
28692.633028414944
 20
10066.145341216099
 11
28714.916468996187
 21
10010.436739762976
  0
LINE
  8
_0-5_
  6
CONTINUOUS
 62
    7
 10
26649.984308467345
 20
9249.0858532371421
 11
28692.633028414944
 21
10066.145341216099
  0
LINE
  8
_0-1_
  6
CONTINUOUS
 62
    4
 10
35697.573897339171
 20
11829.619608438225
 11
35419.030890073591
 21
11718.202405531993
  0
LINE
  8
_0-3_
  6
CONTINUOUS
 62
    2
 10
40000
 20
9596.6669765037295
 11
36339.565170296235
 21
11060.840908385238
  0
LINE
  8
_0-3_
  6
CONTINUOUS
 62
    2
 10
36339.565170296235
 20
11060.840908385238
 11
36488.121440837873
 21
11432.231584739342
  0
LINE
  8
_0-3_
  6
CONTINUOUS
 62
    2
 10
35660.43482970375
 20
11060.840908385238
 11
35511.878559162113
 21
11432.231584739342
  0
LINE
  8
_0-3_
  6
CONTINUOUS
 62
    2
 10
31999.999999999989
 20
9596.6669765037295
 11
35660.43482970375
 21
11060.840908385238
  0
LINE
  8
_0-3_
  6
CONTINUOUS
 62
    4
 10
36580.969109926402
 20
11718.202405532014
 11
36320.995636478539
 21
11068.268721912318
  0
LINE
  8
_0-3_
  6
CONTINUOUS
 62
    4
 10
35419.030890073584
 20
11718.202405532014
 11
35679.004363521446
 21
11068.268721912318
  0
LINE
  8
_0-5_
  6
DASHED1
 62
    4
 10
37575.934436662603
 20
12002.337150407875
 11
37315.960963214733
 21
12106.326539787013
  0
LINE
  8
_0-5_
  6
DASHED1
 62
    4
 10
37558.602871766081
 20
11959.008238166563
 11
37298.629398318204
 21
12062.997627545701
  0
LINE
  8
_0-5_
  6
DASHED1
 62
    4
 10
37593.266001559125
 20
12045.666062649187
 11
37489.276612179987
 21
11785.69258920131
  0
LINE
  8
_0-5_
  6
DASHED1
 62
    4
 10
37333.292528111248
 20
12149.655452028332
 11
37229.30313873211
 21
11889.681978580455
  0
LINE
  8
_0-5_
  6
DASHED1
 62
    4
 10
37541.271306869552
 20
11915.679325925252
 11
37281.297833421675
 21
12019.668715304397
  0
LINE
  8
_0-5_
  6
DASHED1
 62
    4
 10
37523.939741973038
 20
11872.35041368394
 11
37263.966268525153
 21
11976.339803063085
  0
LINE
  8
_0-5_
  6
DASHED1
 62
    4
 10
37506.608177076516
 20
11829.021501442629
 11
37246.634703628632
 21
11933.010890821774
  0
LINE
  8
_0-5_
  6
CONTINUOUS
 62
    7
 10
37916.375889987212
 20
11614.85287807844
 11
36802.203860924885
 21
12060.521689703324
  0
LINE
  8
_0-5_
  6
CONTINUOUS
 62
    7
 10
38020.365279366357
 20
11874.826351526317
 11
35999.999999999985
 21
12682.972463272774
  0
LINE
  8
_0-1_
  6
CONTINUOUS
 62
    4
 10
44389.133762324986
 20
10997.932153116657
 11
44299.999999999985
 21
10775.097747304193
  0
LINE
  8
_0-3_
  6
CONTINUOUS
 62
    2
 10
48000
 20
9596.6669765037295
 11
44299.999999999985
 21
11076.666976503737
  0
LINE
  8
_0-1_
  6
CONTINUOUS
 62
    4
 10
43999.999999999985
 20
10895.0977473042
 11
48000
 21
9295.097747304193
  0
LINE
  8
_0-1_
  6
CONTINUOUS
 62
    4
 10
44389.133762324986
 20
10997.932153116657
 11
48000
 21
9553.5856580466498
  0
LINE
  8
_0-2_
  6
DASHED1
 62
    7
 10
44396.561575852073
 20
11016.501686934367
 11
48000
 21
9575.126317275186
  0
LINE
  8
_0-1_
  6
CONTINUOUS
 62
    4
 10
45049.999999999985
 20
9505.7680820199894
 11
48000
 21
8325.7680820199821
  0
LINE
  8
_0-1_
  6
CONTINUOUS
 62
    4
 10
43610.866237675
 20
10997.932153116657
 11
43699.999999999985
 21
10775.097747304193
  0
LINE
  8
_0-3_
  6
CONTINUOUS
 62
    2
 10
39999.999999999985
 20
9596.6669765037295
 11
43699.999999999985
 21
11076.666976503737
  0
LINE
  8
_0-1_
  6
CONTINUOUS
 62
    4
 10
43999.999999999985
 20
10895.0977473042
 11
39999.999999999985
 21
9295.097747304193
  0
LINE
  8
_0-1_
  6
CONTINUOUS
 62
    4
 10
43610.866237675
 20
10997.932153116657
 11
39999.999999999985
 21
9553.5856580466498
  0
LINE
  8
_0-2_
  6
DASHED1
 62
    7
 10
43603.438424147913
 20
11016.501686934367
 11
39999.999999999985
 21
9575.126317275186
  0
LINE
  8
_0-1_
  6
CONTINUOUS
 62
    4
 10
42949.999999999985
 20
9505.7680820199894
 11
39999.999999999985
 21
8325.7680820199821
  0
LINE
  8
_0-4_
  6
CONTINUOUS
 62
    3
 10
48000
 20
4700
 11
48000
 21
14700
  0
LINE
  8
_0-4_
  6
CONTINUOUS
 62
    3
 10
40000
 20
4700
 11
48000
 21
4700
  0
LINE
  8
_0-1_
  6
CONTINUOUS
 62
    4
 10
42949.999999999985
 20
7625.7680820199894
 11
45049.999999999985
 21
7625.7680820199894
  0
LINE
  8
_0-1_
  6
CONTINUOUS
 62
    4
 10
42949.999999999985
 20
7625.7680820199894
 11
42949.999999999985
 21
9725.7680820199894
  0
LINE
  8
_0-1_
  6
CONTINUOUS
 62
    4
 10
42949.999999999985
 20
9725.7680820199894
 11
45049.999999999985
 21
9725.7680820199894
  0
LINE
  8
_0-1_
  6
CONTINUOUS
 62
    4
 10
45049.999999999985
 20
7625.7680820199894
 11
45049.999999999985
 21
9725.7680820199894
  0
LINE
  8
_0-1_
  6
CONTINUOUS
 62
    4
 10
45049.999999999985
 20
9725.7680820199894
 11
42949.999999999985
 21
7625.7680820199894
  0
LINE
  8
_0-1_
  6
CONTINUOUS
 62
    4
 10
45049.999999999985
 20
7625.7680820199894
 11
42949.999999999985
 21
9725.7680820199894
  0
LINE
  8
_0-1_
  6
CONTINUOUS
 62
    4
 10
44499.999999999985
 20
9725.7680820199894
 11
43999.999999999985
 21
9925.7680820199894
  0
LINE
  8
_0-1_
  6
CONTINUOUS
 62
    4
 10
43499.999999999985
 20
9725.7680820199894
 11
43999.999999999985
 21
9925.7680820199894
  0
LINE
  8
_0-5_
  6
DASHED1
 62
    4
 10
34424.065563337383
 20
12002.337150407875
 11
34684.03903678526
 21
12106.326539787013
  0
LINE
  8
_0-5_
  6
DASHED1
 62
    4
 10
34441.397128233904
 20
11959.008238166563
 11
34701.370601681781
 21
12062.997627545701
  0
LINE
  8
_0-5_
  6
DASHED1
 62
    4
 10
34406.733998440861
 20
12045.666062649187
 11
34510.723387819999
 21
11785.69258920131
  0
LINE
  8
_0-5_
  6
DASHED1
 62
    4
 10
34666.707471888745
 20
12149.655452028332
 11
34770.696861267876
 21
11889.681978580455
  0
LINE
  8
_0-5_
  6
DASHED1
 62
    4
 10
34458.728693130419
 20
11915.679325925252
 11
34718.70216657831
 21
12019.668715304397
  0
LINE
  8
_0-5_
  6
DASHED1
 62
    4
 10
34476.060258026948
 20
11872.35041368394
 11
34736.033731474832
 21
11976.339803063085
  0
LINE
  8
_0-5_
  6
DASHED1
 62
    4
 10
34493.39182292347
 20
11829.021501442629
 11
34753.365296371354
 21
11933.010890821774
  0
LINE
  8
_0-5_
  6
CONTINUOUS
 62
    7
 10
34083.624110012774
 20
11614.85287807844
 11
35197.796139075101
 21
12060.521689703324
  0
LINE
  8
_0-5_
  6
CONTINUOUS
 62
    7
 10
33957.351280052389
 20
11930.534952979433
 11
35999.999999999985
 21
12747.59444095839
  0
LINE
  8
_0-5_
  6
CONTINUOUS
 62
    7
 10
33979.634720633636
 20
11874.826351526317
 11
35999.999999999985
 21
12682.972463272774
  0
LINE
  8
_0-5_
  6
DASHED1
 62
    4
 10
45575.934436662603
 20
10903.763529752432
 11
45315.960963214733
 21
11007.75291913157
  0
LINE
  8
_0-5_
  6
DASHED1
 62
    4
 10
45558.602871766081
 20
10860.43461751112
 11
45298.629398318204
 21
10964.424006890258
  0
LINE
  8
_0-5_
  6
DASHED1
 62
    4
 10
45593.266001559125
 20
10947.092441993744
 11
45489.276612179987
 21
10687.118968545867
  0
LINE
  8
_0-5_
  6
DASHED1
 62
    4
 10
45333.292528111248
 20
11051.081831372889
 11
45229.30313873211
 21
10791.108357925012
  0
LINE
  8
_0-5_
  6
DASHED1
 62
    4
 10
45541.271306869552
 20
10817.105705269809
 11
45281.297833421675
 21
10921.095094648954
  0
LINE
  8
_0-5_
  6
DASHED1
 62
    4
 10
45523.939741973038
 20
10773.776793028497
 11
45263.966268525153
 21
10877.766182407644
  0
LINE
  8
_0-5_
  6
DASHED1
 62
    4
 10
45506.608177076516
 20
10730.447880787184
 11
45246.634703628632
 21
10834.437270166331
  0
LINE
  8
_0-5_
  6
CONTINUOUS
 62
    7
 10
45916.375889987212
 20
10516.279257422997
 11
44802.203860924885
 21
10961.948069047881
  0
LINE
  8
_0-5_
  6
CONTINUOUS
 62
    7
 10
46042.648719947596
 20
10831.96133232399
 11
43999.999999999985
 21
11649.020820302947
  0
LINE
  8
_0-5_
  6
CONTINUOUS
 62
    7
 10
46020.365279366357
 20
10776.252730870874
 11
43999.999999999985
 21
11584.398842617331
  0
LINE
  8
_0-4_
  6
CONTINUOUS
 62
    3
 10
56000
 20
4700
 11
56000
 21
14700
  0
LINE
  8
_0-4_
  6
CONTINUOUS
 62
    3
 10
48000
 20
4700
 11
56000
 21
4700
  0
LINE
  8
_0-1_
  6
CONTINUOUS
 62
    4
 10
50949.999999999993
 20
7625.7680820199894
 11
53050
 21
7625.7680820199894
  0
LINE
  8
_0-1_
  6
CONTINUOUS
 62
    4
 10
50949.999999999993
 20
7625.7680820199894
 11
50949.999999999993
 21
9725.7680820199894
  0
LINE
  8
_0-1_
  6
CONTINUOUS
 62
    4
 10
50949.999999999993
 20
9725.7680820199894
 11
53050
 21
9725.7680820199894
  0
LINE
  8
_0-1_
  6
CONTINUOUS
 62
    4
 10
53050
 20
7625.7680820199894
 11
53050
 21
9725.7680820199894
  0
LINE
  8
_0-1_
  6
CONTINUOUS
 62
    4
 10
53050
 20
9725.7680820199894
 11
50949.999999999993
 21
7625.7680820199894
  0
LINE
  8
_0-1_
  6
CONTINUOUS
 62
    4
 10
53050
 20
7625.7680820199894
 11
50949.999999999993
 21
9725.7680820199894
  0
LINE
  8
_0-1_
  6
CONTINUOUS
 62
    4
 10
48000
 20
9943.5915944666922
 11
52000
 21
10743.591594466692
  0
LINE
  8
_0-1_
  6
CONTINUOUS
 62
    4
 10
48000
 20
10188.344531119139
 11
51652.932127566826
 21
10918.93095663251
  0
LINE
  8
_0-1_
  6
CONTINUOUS
 62
    4
 10
51700
 20
10683.591594466692
 11
51652.932127566826
 21
10918.93095663251
  0
LINE
  8
_0-2_
  6
DASHED1
 62
    7
 10
48000
 20
10208.740609173517
 11
51649.009804864065
 21
10938.542570146332
  0
LINE
  8
_0-3_
  6
CONTINUOUS
 62
    2
 10
48000
 20
10229.136687227889
 11
51700
 21
10969.136687227889
  0
LINE
  8
_0-3_
  6
CONTINUOUS
 62
    2
 10
51700
 20
10969.136687227889
 11
51660.776772972349
 21
11165.252822366077
  0
LINE
  8
_0-1_
  6
CONTINUOUS
 62
    4
 10
52000
 20
9825.7680820199894
 11
51500
 21
9725.7680820199894
  0
LINE
  8
_0-1_
  6
CONTINUOUS
 62
    4
 10
50949.999999999993
 20
9615.7680820199894
 11
48000
 21
9025.7680820199894
  0
LINE
  8
_0-1_
  6
CONTINUOUS
 62
    4
 10
55999.999999999978
 20
10188.344531119139
 11
52347.067872433159
 21
10918.93095663251
  0
LINE
  8
_0-1_
  6
CONTINUOUS
 62
    4
 10
52300
 20
10683.591594466692
 11
52347.067872433159
 21
10918.93095663251
  0
LINE
  8
_0-2_
  6
DASHED1
 62
    7
 10
55999.999999999978
 20
10208.740609173517
 11
52350.990195135921
 21
10938.542570146332
  0
LINE
  8
_0-3_
  6
CONTINUOUS
 62
    2
 10
55999.999999999978
 20
10229.136687227889
 11
52300
 21
10969.136687227889
  0
LINE
  8
_0-3_
  6
CONTINUOUS
 62
    2
 10
52300
 20
10969.136687227889
 11
52339.223227027629
 21
11165.252822366077
  0
LINE
  8
_0-1_
  6
CONTINUOUS
 62
    4
 10
52000
 20
9825.7680820199894
 11
52500
 21
9725.7680820199894
  0
LINE
  8
_0-1_
  6
CONTINUOUS
 62
    4
 10
53050
 20
9615.7680820199894
 11
55999.999999999978
 21
9025.7680820199894
  0
LINE
  8
_0-1_
  6
CONTINUOUS
 62
    4
 10
55999.999999999978
 20
9943.5915944666922
 11
52000
 21
10743.591594466692
  0
LINE
  8
_0-4_
  6
CONTINUOUS
 62
    3
 10
54450.30877975082
 20
10582.163135903931
 11
54446.386457048058
 21
10562.551522390109
  0
LINE
  8
_0-4_
  6
CONTINUOUS
 62
    3
 10
54446.386457048058
 20
10562.551522390109
 11
54289.39622616324
 21
10593.94956856707
  0
LINE
  8
_0-1_
  6
CONTINUOUS
 62
    4
 10
53973.477364990278
 20
10635.001891237194
 11
54084.894567896503
 21
10913.544898502774
  0
LINE
  8
_0-4_
  6
CONTINUOUS
 62
    3
 10
52299.793218735977
 20
11649.126097395529
 11
54110.891915241293
 21
10924.686618793399
  0
LINE
  8
_0-4_
  6
CONTINUOUS
 62
    3
 10
54009.173355986641
 20
10670.390220656765
 11
54110.891915241293
 21
10924.686618793399
  0
LINE
  8
_0-4_
  6
CONTINUOUS
 62
    3
 10
54450.30877975082
 20
10582.163135903931
 11
54009.173355986641
 21
10670.390220656765
  0
LINE
  8
_0-4_
  6
CONTINUOUS
 62
    3
 10
49549.691220249159
 20
10582.163135903931
 11
49553.613542951927
 21
10562.551522390109
  0
LINE
  8
_0-4_
  6
CONTINUOUS
 62
    3
 10
49553.613542951927
 20
10562.551522390109
 11
49710.603773836745
 21
10593.94956856707
  0
LINE
  8
_0-1_
  6
CONTINUOUS
 62
    4
 10
50026.522635009707
 20
10635.001891237194
 11
49915.105432103475
 21
10913.544898502774
  0
LINE
  8
_0-4_
  6
CONTINUOUS
 62
    3
 10
51700.206781264002
 20
11649.126097395529
 11
49889.108084758693
 21
10924.686618793399
  0
LINE
  8
_0-4_
  6
CONTINUOUS
 62
    3
 10
49990.826644013345
 20
10670.390220656765
 11
49889.108084758693
 21
10924.686618793399
  0
LINE
  8
_0-4_
  6
CONTINUOUS
 62
    3
 10
49549.691220249159
 20
10582.163135903931
 11
49990.826644013345
 21
10670.390220656765
  0
LINE
  8
_0-5_
  6
DASHED1
 62
    4
 10
42424.065563337383
 20
10903.763529752432
 11
42684.03903678526
 21
11007.75291913157
  0
LINE
  8
_0-5_
  6
DASHED1
 62
    4
 10
42441.397128233904
 20
10860.43461751112
 11
42701.370601681781
 21
10964.424006890258
  0
LINE
  8
_0-5_
  6
DASHED1
 62
    4
 10
42406.733998440861
 20
10947.092441993744
 11
42510.723387819999
 21
10687.118968545867
  0
LINE
  8
_0-5_
  6
DASHED1
 62
    4
 10
42666.707471888745
 20
11051.081831372889
 11
42770.696861267876
 21
10791.108357925012
  0
LINE
  8
_0-5_
  6
DASHED1
 62
    4
 10
42458.728693130419
 20
10817.105705269809
 11
42718.70216657831
 21
10921.095094648954
  0
LINE
  8
_0-5_
  6
DASHED1
 62
    4
 10
42476.060258026948
 20
10773.776793028497
 11
42736.033731474832
 21
10877.766182407644
  0
LINE
  8
_0-5_
  6
DASHED1
 62
    4
 10
42493.39182292347
 20
10730.447880787184
 11
42753.365296371354
 21
10834.437270166331
  0
LINE
  8
_0-5_
  6
CONTINUOUS
 62
    7
 10
41957.351280052389
 20
10831.96133232399
 11
43999.999999999985
 21
11649.020820302947
  0
LINE
  8
_0-5_
  6
CONTINUOUS
 62
    7
 10
41979.634720633636
 20
10776.252730870874
 11
43999.999999999985
 21
11584.398842617331
  0
LINE
  8
_0-5_
  6
CONTINUOUS
 62
    7
 10
42083.624110012774
 20
10516.279257422997
 11
43197.796139075101
 21
10961.948069047881
  0
LINE
  8
_0-5_
  6
CONTINUOUS
 62
    7
 10
41957.351280052389
 20
10831.96133232399
 11
42105.90755059402
 21
10460.570655969881
  0
LINE
  8
_0-5_
  6
CONTINUOUS
 62
    7
 10
42105.90755059402
 20
10460.570655969881
 11
43220.079579656354
 21
10906.239467594765
  0
LINE
  8
_0-5_
  6
CONTINUOUS
 62
    7
 10
43093.806749695963
 20
11221.921542495758
 11
43220.079579656354
 21
10906.239467594765
  0
LINE
  8
_0-5_
  6
CONTINUOUS
 62
    7
 10
46042.648719947596
 20
10831.96133232399
 11
45894.092449405965
 21
10460.570655969881
  0
LINE
  8
_0-5_
  6
CONTINUOUS
 62
    7
 10
45894.092449405965
 20
10460.570655969881
 11
44779.920420343638
 21
10906.239467594765
  0
LINE
  8
_0-5_
  6
CONTINUOUS
 62
    7
 10
44906.193250304023
 20
11221.921542495758
 11
44779.920420343638
 21
10906.239467594765
  0
LINE
  8
_0-5_
  6
CONTINUOUS
 62
    7
 10
33957.351280052389
 20
11930.534952979433
 11
34105.90755059402
 21
11559.144276625324
  0
LINE
  8
_0-5_
  6
CONTINUOUS
 62
    7
 10
34105.90755059402
 20
11559.144276625324
 11
35220.079579656354
 21
12004.813088250208
  0
LINE
  8
_0-5_
  6
CONTINUOUS
 62
    7
 10
35093.806749695963
 20
12320.495163151201
 11
35220.079579656354
 21
12004.813088250208
  0
LINE
  8
_0-5_
  6
CONTINUOUS
 62
    7
 10
36906.193250304023
 20
12320.495163151201
 11
36779.920420343638
 21
12004.813088250208
  0
LINE
  8
_0-5_
  6
CONTINUOUS
 62
    7
 10
37894.092449405965
 20
11559.144276625324
 11
36779.920420343638
 21
12004.813088250208
  0
LINE
  8
_0-5_
  6
CONTINUOUS
 62
    7
 10
38042.648719947596
 20
11930.534952979433
 11
37894.092449405965
 21
11559.144276625324
  0
LINE
  8
_0-5_
  6
DASHED1
 62
    4
 10
50424.272344601392
 20
11476.222650644224
 11
50684.245818049269
 21
11580.212040023362
  0
LINE
  8
_0-5_
  6
DASHED1
 62
    4
 10
50441.603909497913
 20
11432.893738402912
 11
50701.57738294579
 21
11536.88312778205
  0
LINE
  8
_0-5_
  6
DASHED1
 62
    4
 10
50406.94077970487
 20
11519.551562885536
 11
50510.930169084008
 21
11259.578089437658
  0
LINE
  8
_0-5_
  6
DASHED1
 62
    4
 10
50666.914253152747
 20
11623.540952264681
 11
50770.903642531885
 21
11363.567478816803
  0
LINE
  8
_0-5_
  6
DASHED1
 62
    4
 10
50458.935474394435
 20
11389.564826161601
 11
50718.908947842319
 21
11493.554215540746
  0
LINE
  8
_0-5_
  6
DASHED1
 62
    4
 10
50476.267039290957
 20
11346.235913920289
 11
50736.240512738841
 21
11450.225303299434
  0
LINE
  8
_0-5_
  6
DASHED1
 62
    4
 10
50493.598604187478
 20
11302.907001678977
 11
50753.572077635363
 21
11406.896391058122
  0
LINE
  8
_0-5_
  6
CONTINUOUS
 62
    7
 10
50083.830891276782
 20
11088.738378314789
 11
51198.00292033911
 21
11534.407189939673
  0
LINE
  8
_0-5_
  6
CONTINUOUS
 62
    7
 10
49957.558061316398
 20
11404.420453215782
 11
52000.206781264002
 21
12221.479941194739
  0
LINE
  8
_0-5_
  6
CONTINUOUS
 62
    7
 10
49979.841501897645
 20
11348.711851762668
 11
52000.206781264002
 21
12156.857963509123
  0
LINE
  8
_0-5_
  6
CONTINUOUS
 62
    7
 10
51094.013530959972
 20
11794.38066338755
 11
51220.286360920363
 21
11478.698588486557
  0
LINE
  8
_0-5_
  6
CONTINUOUS
 62
    7
 10
50106.114331858029
 20
11033.029776861673
 11
51220.286360920363
 21
11478.698588486557
  0
LINE
  8
_0-5_
  6
CONTINUOUS
 62
    7
 10
49957.558061316398
 20
11404.420453215782
 11
50106.114331858029
 21
11033.029776861673
  0
LINE
  8
_0-5_
  6
DASHED1
 62
    4
 10
53576.141217926612
 20
11476.222650644224
 11
53316.167744478727
 21
11580.212040023362
  0
LINE
  8
_0-5_
  6
DASHED1
 62
    4
 10
53558.809653030083
 20
11432.893738402912
 11
53298.836179582213
 21
11536.88312778205
  0
LINE
  8
_0-5_
  6
DASHED1
 62
    4
 10
53593.472782823141
 20
11519.551562885536
 11
53489.483393443996
 21
11259.578089437658
  0
LINE
  8
_0-5_
  6
DASHED1
 62
    4
 10
53333.499309375256
 20
11623.540952264681
 11
53229.509919996119
 21
11363.567478816803
  0
LINE
  8
_0-5_
  6
DASHED1
 62
    4
 10
53541.478088133568
 20
11389.564826161601
 11
53281.504614685684
 21
11493.554215540746
  0
LINE
  8
_0-5_
  6
DASHED1
 62
    4
 10
53524.146523237054
 20
11346.235913920289
 11
53264.173049789155
 21
11450.225303299434
  0
LINE
  8
_0-5_
  6
DASHED1
 62
    4
 10
53506.814958340532
 20
11302.907001678977
 11
53246.84148489264
 21
11406.896391058122
  0
LINE
  8
_0-5_
  6
CONTINUOUS
 62
    7
 10
53916.582671251221
 20
11088.738378314789
 11
52802.410642188901
 21
11534.407189939673
  0
LINE
  8
_0-5_
  6
CONTINUOUS
 62
    7
 10
54042.855501211605
 20
11404.420453215782
 11
52000.206781264002
 21
12221.479941194739
  0
LINE
  8
_0-5_
  6
CONTINUOUS
 62
    7
 10
54020.572060630366
 20
11348.711851762668
 11
52000.206781264002
 21
12156.857963509123
  0
LINE
  8
_0-5_
  6
CONTINUOUS
 62
    7
 10
52906.400031568024
 20
11794.38066338755
 11
52780.127201607647
 21
11478.698588486557
  0
LINE
  8
_0-5_
  6
CONTINUOUS
 62
    7
 10
53894.299230669982
 20
11033.029776861673
 11
52780.127201607647
 21
11478.698588486557
  0
LINE
  8
_0-5_
  6
CONTINUOUS
 62
    7
 10
54042.855501211605
 20
11404.420453215782
 11
53894.299230669982
 21
11033.029776861673
  0
LINE
  8
_0-1_
  6
CONTINUOUS
 62
    4
 10
7999.9999999999918
 20
9359.7197249898018
 11
11610.866237675018
 21
10804.066220059809
  0
LINE
  8
_0-2_
  6
DASHED1
 62
    7
 10
7999.9999999999918
 20
9381.2603842183453
 11
11603.438424147937
 21
10822.635753877512
  0
LINE
  8
_0-1_
  6
CONTINUOUS
 62
    4
 10
7999.9999999999918
 20
9101.2318142473523
 11
11700.000000000002
 21
10581.231814247352
  0
LINE
  8
_0-1_
  6
CONTINUOUS
 62
    4
 10
7999.9999999999973
 20
9359.7197249898018
 11
11610.866237675016
 21
10804.066220059816
  0
LINE
  8
_0-1_
  6
CONTINUOUS
 62
    4
 10
8000
 20
9101.2318142473523
 11
11700
 21
10581.231814247352
  0
LINE
  8
_0-2_
  6
DASHED1
 62
    7
 10
8000
 20
9381.2603842183453
 11
11603.438424147929
 21
10822.635753877519
  0
LINE
  8
_0-3_
  6
CONTINUOUS
 62
    2
 10
11529.160288877107
 20
11008.331092054577
 11
8000
 21
9596.6669765037514
  0
LINE
  8
_0-3_
  6
DASHED3
 62
    4
 10
11566.299356512522
 20
10915.483422966048
 11
8000
 21
9488.9636803610483
  0
LINE
  8
_0-1_
  6
CONTINUOUS
 62
    4
 10
17734.116681121814
 20
7813.2894984521254
 11
16000
 21
7119.6428260034008
  0
LINE
  8
_0-1_
  6
CONTINUOUS
 62
    4
 10
19834.116681121814
 20
8033.2894984521263
 11
19834.116681121814
 21
4700
  0
LINE
  8
_0-1_
  6
CONTINUOUS
 62
    4
 10
17734.116681121814
 20
8033.2894984521263
 11
17734.116681121814
 21
4700
  0
LINE
  8
_0-1_
  6
CONTINUOUS
 62
    4
 10
18284.116681121817
 20
8033.2894984521263
 11
22630.64830739937
 21
9771.9021489631486
  0
LINE
  8
_0-2_
  6
DASHED1
 62
    7
 10
19854.116681121814
 20
8033.2894984521263
 11
19854.116681121814
 21
4700
  0
LINE
  8
_0-4_
  6
CONTINUOUS
 62
    3
 10
23470.64830739937
 20
8976.9225394845635
 11
23450.64830739937
 21
8976.9225394845635
  0
LINE
  8
_0-4_
  6
CONTINUOUS
 62
    3
 10
23470.64830739937
 20
9376.9225394845635
 11
23470.64830739937
 21
8976.9225394845635
  0
LINE
  8
_0-4_
  6
CONTINUOUS
 62
    3
 10
23770.64830739937
 20
9376.9225394845635
 11
23470.64830739937
 21
9376.9225394845635
  0
LINE
  8
_0-1_
  6
CONTINUOUS
 62
    4
 10
23730.64830739937
 20
9396.9225394845635
 11
23430.64830739937
 21
9396.9225394845635
  0
LINE
  8
_0-1_
  6
CONTINUOUS
 62
    4
 10
23730.64830739937
 20
11196.922539484563
 11
23430.64830739937
 21
11196.922539484563
  0
LINE
  8
_0-1_
  6
CONTINUOUS
 62
    4
 10
23730.64830739937
 20
11196.922539484563
 11
23730.64830739937
 21
9396.9225394845635
  0
LINE
  8
_0-1_
  6
CONTINUOUS
 62
    4
 10
23730.64830739937
 20
11196.922539484563
 11
23430.64830739937
 21
9396.9225394845635
  0
LINE
  8
_0-3_
  6
CONTINUOUS
 62
    2
 10
20194.116681121814
 20
6448.1312529938805
 11
23110.64830739937
 21
7614.7439035048965
  0
LINE
  8
_0-1_
  6
CONTINUOUS
 62
    4
 10
20194.116681121814
 20
6706.6191637363372
 11
23110.64830739937
 21
7873.2318142473514
  0
LINE
  8
_0-1_
  6
CONTINUOUS
 62
    4
 10
20194.116681121814
 20
4700
 11
20194.116681121814
 21
6706.6191637363372
  0
LINE
  8
_0-3_
  6
CONTINUOUS
 62
    2
 10
20514.116681121814
 20
4700
 11
20514.116681121814
 21
6576.1312529938805
  0
LINE
  8
_0-1_
  6
CONTINUOUS
 62
    4
 10
23110.64830739937
 20
7873.2318142473514
 11
22630.64830739937
 21
7873.2318142473514
  0
LINE
  8
_0-3_
  6
CONTINUOUS
 62
    2
 10
23110.64830739937
 20
10873.231814247352
 11
23430.64830739937
 21
10873.231814247352
  0
LINE
  8
_0-3_
  6
CONTINUOUS
 62
    2
 10
23430.64830739937
 20
7793.2318142473523
 11
23370.64830739937
 21
7793.2318142473523
  0
LINE
  8
_0-3_
  6
CONTINUOUS
 62
    2
 10
23430.64830739937
 20
10873.231814247352
 11
23430.64830739937
 21
7793.2318142473523
  0
LINE
  8
_0-1_
  6
CONTINUOUS
 62
    4
 10
22630.64830739937
 20
7873.2318142473514
 11
22630.64830739937
 21
10873.231814247352
  0
LINE
  8
_0-1_
  6
CONTINUOUS
 62
    4
 10
23110.64830739937
 20
10873.231814247352
 11
22630.64830739937
 21
10873.231814247352
  0
LINE
  8
_0-3_
  6
CONTINUOUS
 62
    2
 10
23110.64830739937
 20
7273.2318142473514
 11
23110.64830739937
 21
10873.231814247352
  0
LINE
  8
_0-3_
  6
CONTINUOUS
 62
    2
 10
23370.64830739937
 20
7273.2318142473514
 11
23110.64830739937
 21
7273.2318142473514
  0
LINE
  8
_0-3_
  6
CONTINUOUS
 62
    2
 10
23370.64830739937
 20
7793.2318142473523
 11
23370.64830739937
 21
7273.2318142473514
  0
LINE
  8
_0-1_
  6
CONTINUOUS
 62
    4
 10
23110.64830739937
 20
10873.231814247352
 11
22630.64830739937
 21
7873.2318142473514
  0
LINE
  8
_0-4_
  6
CONTINUOUS
 62
    3
 10
23450.64830739937
 20
9076.9225394845635
 11
23450.64830739937
 21
8976.9225394845635
  0
LINE
  8
_0-1_
  6
CONTINUOUS
 62
    4
 10
23430.64830739937
 20
10873.231814247352
 11
23430.64830739937
 21
11196.922539484563
  0
LINE
  8
_0-1_
  6
CONTINUOUS
 62
    4
 10
17734.116681121814
 20
5933.2894984521263
 11
19834.116681121814
 21
5933.2894984521263
  0
LINE
  8
_0-1_
  6
CONTINUOUS
 62
    4
 10
19834.116681121814
 20
8033.2894984521263
 11
17734.116681121814
 21
8033.2894984521263
  0
LINE
  8
_0-1_
  6
CONTINUOUS
 62
    4
 10
17734.116681121814
 20
5933.2894984521263
 11
19834.116681121814
 21
8033.2894984521263
  0
LINE
  8
_0-1_
  6
CONTINUOUS
 62
    4
 10
19834.116681121814
 20
5933.2894984521263
 11
17734.116681121814
 21
8033.2894984521263
  0
LINE
  8
_0-1_
  6
CONTINUOUS
 62
    4
 10
16000
 20
8088.9724912876118
 11
22630.64830739937
 21
10741.231814247352
  0
LINE
  8
_0-1_
  6
CONTINUOUS
 62
    4
 10
4000
 20
10701.231814247352
 11
7999.9999999999918
 21
9101.2318142473523
  0
LINE
  8
_0-1_
  6
CONTINUOUS
 62
    4
 10
4000
 20
10701.231814247352
 11
-0.0000000000085265
 21
9101.2318142473523
  0
LINE
  8
_0-1_
  6
CONTINUOUS
 62
    4
 10
7999.9999999999918
 20
9359.7197249898018
 11
4389.1337623249883
 21
10804.066220059809
  0
LINE
  8
_0-2_
  6
DASHED1
 62
    7
 10
7999.9999999999918
 20
9381.2603842183453
 11
4396.5615758520726
 21
10822.635753877519
  0
LINE
  8
_0-1_
  6
CONTINUOUS
 62
    4
 10
4389.1337623249856
 20
10804.066220059809
 11
4299.9999999999918
 21
10581.231814247345
  0
LINE
  8
_0-3_
  6
DASHED3
 62
    4
 10
7999.9999999999918
 20
9488.9636803610483
 11
4433.7006434874811
 21
10915.483422966034
  0
LINE
  8
_0-1_
  6
CONTINUOUS
 62
    4
 10
3610.8662376750062
 20
10804.066220059794
 11
3700
 21
10581.231814247345
  0
LINE
  8
_0-3_
  6
CONTINUOUS
 62
    2
 10
3603.4384241479188
 20
10822.635753877519
 11
3529.160288877094
 21
11008.331092054585
  0
LINE
  8
_0-3_
  6
DASHED3
 62
    4
 10
-0.0000000000028421
 20
9488.9636803610483
 11
3566.2993565125107
 21
10915.483422966034
  0
LINE
  8
_0-3_
  6
CONTINUOUS
 62
    2
 10
3529.160288877094
 20
11008.331092054585
 11
0
 21
9596.6669765037368
  0
LINE
  8
_0-3_
  6
CONTINUOUS
 62
    2
 10
4470.8397111228978
 20
11008.33109205457
 11
8000
 21
9596.6669765037295
  0
LINE
  8
_0-1_
  6
CONTINUOUS
 62
    4
 10
-0.0000000000085265
 20
9359.7197249898018
 11
3610.8662376750003
 21
10804.0662200598
  0
LINE
  8
_0-2_
  6
DASHED1
 62
    7
 10
-0.0000000000085265
 20
9381.2603842183453
 11
3603.4384241479188
 21
10822.635753877505
  0
LINE
  8
_0-1_
  6
CONTINUOUS
 62
    4
 10
2950
 20
7431.9021489631414
 11
5050
 21
7431.9021489631414
  0
LINE
  8
_0-1_
  6
CONTINUOUS
 62
    4
 10
2950
 20
7431.9021489631414
 11
2950
 21
9531.9021489631414
  0
LINE
  8
_0-1_
  6
CONTINUOUS
 62
    4
 10
2950
 20
9531.9021489631414
 11
5050
 21
9531.9021489631414
  0
LINE
  8
_0-1_
  6
CONTINUOUS
 62
    4
 10
5050
 20
7431.9021489631414
 11
5050
 21
9531.9021489631414
  0
LINE
  8
_0-1_
  6
CONTINUOUS
 62
    4
 10
4000
 20
9731.9021489631414
 11
3500
 21
9531.9021489631414
  0
LINE
  8
_0-1_
  6
CONTINUOUS
 62
    4
 10
2950
 20
9311.9021489631414
 11
0
 21
8131.9021489631414
  0
LINE
  8
_0-1_
  6
CONTINUOUS
 62
    4
 10
4000
 20
9731.9021489631414
 11
4500
 21
9531.9021489631414
  0
LINE
  8
_0-1_
  6
CONTINUOUS
 62
    4
 10
5050
 20
9311.9021489631414
 11
8000
 21
8131.9021489631414
  0
LINE
  8
_0-1_
  6
CONTINUOUS
 62
    4
 10
5050
 20
9531.9021489631414
 11
2950
 21
7431.9021489631414
  0
LINE
  8
_0-1_
  6
CONTINUOUS
 62
    4
 10
5050
 20
7431.9021489631414
 11
2950
 21
9531.9021489631414
  0
LINE
  8
_0-3_
  6
CONTINUOUS
 62
    2
 10
4396.5615758520726
 20
10822.635753877519
 11
4470.8397111228951
 21
11008.33109205457
  0
LINE
  8
_0-4_
  6
CONTINUOUS
 62
    3
 10
4461.9177301333903
 20
11076.521862135989
 11
5994.7971339035948
 21
10463.370100627893
  0
LINE
  8
_0-4_
  6
CONTINUOUS
 62
    3
 10
5987.3693203765069
 20
10444.800566810198
 11
5894.5216512879679
 21
10481.939634445594
  0
LINE
  8
_0-5_
  6
CONTINUOUS
 62
    7
 10
6042.6487199476069
 20
10897.232755197198
 11
4000.0000000000086
 21
11714.292243176154
  0
LINE
  8
_0-5_
  6
CONTINUOUS
 62
    7
 10
6042.6487199476069
 20
10897.232755197198
 11
6020.3652793663623
 21
10841.524153744082
  0
LINE
  8
_0-5_
  6
CONTINUOUS
 62
    7
 10
5916.3758899872219
 20
10581.55068029619
 11
5894.0924494059773
 21
10525.842078843089
  0
LINE
  8
_0-5_
  6
CONTINUOUS
 62
    7
 10
6020.3652793663623
 20
10841.524153744082
 11
5916.3758899872219
 21
10581.55068029619
  0
LINE
  8
_0-5_
  6
CONTINUOUS
 62
    7
 10
5916.3758899872219
 20
10581.55068029619
 11
4802.2038609248966
 21
11027.219491921089
  0
LINE
  8
_0-5_
  6
CONTINUOUS
 62
    7
 10
4906.1932503040334
 20
11287.19296536898
 11
4779.920420343652
 21
10971.510890467975
  0
LINE
  8
_0-5_
  6
CONTINUOUS
 62
    7
 10
5894.0924494059773
 20
10525.842078843089
 11
4779.920420343652
 21
10971.510890467975
  0
LINE
  8
_0-5_
  6
DASHED1
 62
    4
 10
5593.2660015591355
 20
11012.363864866951
 11
5489.2766121799978
 21
10752.390391419074
  0
LINE
  8
_0-5_
  6
DASHED1
 62
    4
 10
5333.2925281112584
 20
11116.353254246096
 11
5229.3031387321207
 21
10856.379780798234
  0
LINE
  8
_0-4_
  6
CONTINUOUS
 62
    3
 10
5994.7971339035948
 20
10463.370100627893
 11
5987.3693203765069
 21
10444.800566810198
  0
LINE
  8
_0-5_
  6
CONTINUOUS
 62
    7
 10
6020.3652793663623
 20
10841.524153744082
 11
4000
 21
11649.670265490538
  0
LINE
  8
_0-4_
  6
CONTINUOUS
 62
    3
 10
3538.0822698666093
 20
11076.521862135989
 11
2005.2028660964056
 21
10463.370100627893
  0
LINE
  8
_0-4_
  6
CONTINUOUS
 62
    3
 10
2012.6306796234928
 20
10444.800566810198
 11
2105.4783487120317
 21
10481.939634445611
  0
LINE
  8
_0-5_
  6
CONTINUOUS
 62
    7
 10
1957.3512800523929
 20
10897.232755197198
 11
1979.6347206336407
 21
10841.524153744082
  0
LINE
  8
_0-5_
  6
CONTINUOUS
 62
    7
 10
2083.6241100127781
 20
10581.550680296205
 11
2105.90755059402
 21
10525.842078843089
  0
LINE
  8
_0-5_
  6
CONTINUOUS
 62
    7
 10
1979.6347206336407
 20
10841.524153744082
 11
2083.6241100127781
 21
10581.550680296205
  0
LINE
  8
_0-5_
  6
CONTINUOUS
 62
    7
 10
2083.6241100127781
 20
10581.550680296205
 11
3197.7961390751034
 21
11027.219491921089
  0
LINE
  8
_0-5_
  6
CONTINUOUS
 62
    7
 10
3093.8067496959661
 20
11287.192965368964
 11
3220.0795796563511
 21
10971.510890467975
  0
LINE
  8
_0-5_
  6
CONTINUOUS
 62
    7
 10
2105.90755059402
 20
10525.842078843089
 11
3220.0795796563511
 21
10971.510890467975
  0
LINE
  8
_0-4_
  6
CONTINUOUS
 62
    3
 10
2005.2028660964056
 20
10463.370100627893
 11
2012.6306796234928
 21
10444.800566810198
  0
LINE
  8
_0-5_
  6
CONTINUOUS
 62
    7
 10
1979.6347206336407
 20
10841.524153744082
 11
4000
 21
11649.670265490538
  0
LINE
  8
_0-5_
  6
DASHED1
 62
    4
 10
5575.9344366626037
 20
10969.03495262564
 11
5315.9609632147267
 21
11073.024342004792
  0
LINE
  8
_0-5_
  6
DASHED1
 62
    4
 10
5558.6028717660784
 20
10925.706040384326
 11
5298.6293983182004
 21
11029.695429763466
  0
LINE
  8
_0-5_
  6
DASHED1
 62
    4
 10
5541.2713068695584
 20
10882.377128143016
 11
5281.2978334216778
 21
10986.366517522161
  0
LINE
  8
_0-5_
  6
DASHED1
 62
    4
 10
5523.9397419730349
 20
10839.048215901705
 11
5263.9662685251578
 21
10943.03760528085
  0
LINE
  8
_0-5_
  6
DASHED1
 62
    4
 10
5506.6081770765122
 20
10795.719303660393
 11
5246.6347036286352
 21
10899.708693039538
  0
LINE
  8
_0-5_
  6
DASHED1
 62
    4
 10
2406.7339984408645
 20
11012.363864866951
 11
2510.7233878200022
 21
10752.390391419074
  0
LINE
  8
_0-5_
  6
DASHED1
 62
    4
 10
2666.707471888742
 20
11116.353254246096
 11
2770.6968612678793
 21
10856.379780798219
  0
LINE
  8
_0-5_
  6
DASHED1
 62
    4
 10
2424.0655633373876
 20
10969.03495262564
 11
2684.0390367852619
 21
11073.024342004777
  0
LINE
  8
_0-5_
  6
DASHED1
 62
    4
 10
2441.3971282339076
 20
10925.706040384326
 11
2701.3706016817878
 21
11029.695429763466
  0
LINE
  8
_0-5_
  6
DASHED1
 62
    4
 10
2458.7286931304307
 20
10882.377128143016
 11
2718.7021665783104
 21
10986.366517522161
  0
LINE
  8
_0-5_
  6
DASHED1
 62
    4
 10
2476.060258026956
 20
10839.048215901705
 11
2736.0337314748335
 21
10943.03760528085
  0
LINE
  8
_0-5_
  6
DASHED1
 62
    4
 10
2493.3918229234764
 20
10795.719303660393
 11
2753.3652963713535
 21
10899.708693039538
  0
LINE
  8
_0-0_
  6
CENTER1
 62
    4
 10
12000
 20
4700
 11
11999.999999999993
 21
14400
  0
LINE
  8
_0-0_
  6
CENTER1
 62
    4
 10
29764.916468996238
 20
4700
 11
29764.916468996238
 21
14400
  0
LINE
  8
_0-3_
  6
CONTINUOUS
 62
    2
 10
28034.916468996242
 20
10685.631235635083
 11
28034.916468996242
 21
14400
  0
LINE
  8
_0-1_
  6
CONTINUOUS
 62
    4
 10
28354.916468996242
 20
10685.631235635083
 11
28354.916468996242
 21
14400
  0
LINE
  8
_0-2_
  6
DASHED1
 62
    7
 10
28674.916468996242
 20
10685.631235635083
 11
28674.916468996242
 21
14400
  0
LINE
  8
_0-1_
  6
CONTINUOUS
 62
    4
 10
30814.916468996238
 20
4700
 11
30814.916468996238
 21
14400
  0
LINE
  8
_0-1_
  6
CONTINUOUS
 62
    4
 10
28714.916468996238
 20
4700
 11
28714.916468996238
 21
14400
  0
LINE
  8
_0-0_
  6
CENTER1
 62
    4
 10
36000
 20
4700
 11
35999.999999999985
 21
14400
  0
LINE
  8
_0-0_
  6
CENTER1
 62
    4
 10
44000
 20
4700
 11
43999.999999999985
 21
14400
  0
LINE
  8
_0-0_
  6
CENTER1
 62
    4
 10
52000
 20
4700
 11
52000
 21
14400
  0
LINE
  8
_0-0_
  6
CENTER1
 62
    4
 10
18784.116681121814
 20
4700
 11
18784.116681121814
 21
14400
  0
LINE
  8
_0-4_
  6
CONTINUOUS
 62
    3
 10
0
 20
4700
 11
8000
 21
4700
  0
LINE
  8
_0-4_
  6
CONTINUOUS
 62
    3
 10
16000
 20
4700
 11
24000
 21
4700
  0
LINE
  8
_0-5_
  6
CONTINUOUS
 62
    7
 10
3999.9999999999914
 20
11714.292243176154
 11
1957.3512800523929
 21
10897.232755197198
  0
LINE
  8
_0-4_
  6
CONTINUOUS
 62
    3
 10
3538.0822698666093
 20
11076.521862135989
 11
3515.7988292853674
 21
11132.230463589105
  0
LINE
  8
_0-4_
  6
CONTINUOUS
 62
    3
 10
4461.9177301333903
 20
11076.521862135989
 11
4484.201170714633
 21
11132.230463589105
  0
LINE
  8
_0-4_
  6
CONTINUOUS
 62
    3
 10
11538.082269866607
 20
11076.521862135996
 11
11515.798829285362
 21
11132.230463589112
  0
LINE
  8
_0-4_
  6
CONTINUOUS
 62
    3
 10
12461.917730133382
 20
11076.521862135996
 11
12484.201170714627
 21
11132.230463589112
  0
LINE
  8
_0-4_
  6
CONTINUOUS
 62
    3
 10
28218.079410528553
 20
9423.9700502622873
 11
28195.795969947314
 21
9479.6786517154032
  0
LINE
  8
_0-4_
  6
CONTINUOUS
 62
    3
 10
35699.999999999985
 20
12175.24059715918
 11
35677.716559418746
 21
12230.949198612296
  0
LINE
  8
_0-4_
  6
CONTINUOUS
 62
    3
 10
36299.999999999985
 20
12175.24059715918
 11
36322.283440581239
 21
12230.949198612296
  0
LINE
  8
_0-3_
  6
CONTINUOUS
 62
    2
 10
43699.999999999985
 20
11076.666976503737
 11
43677.716559418746
 21
11132.375577956853
  0
LINE
  8
_0-3_
  6
CONTINUOUS
 62
    2
 10
44299.999999999985
 20
11076.666976503737
 11
44322.283440581239
 21
11132.375577956853
  0
LINE
  8
_0-1_
  6
CONTINUOUS
 62
    4
 10
52650.037689788747
 20
11487.487649745886
 11
53973.477364990278
 21
10635.001891237194
  0
LINE
  8
_0-1_
  6
CONTINUOUS
 62
    4
 10
51349.962310211231
 20
11487.487649745886
 11
50026.522635009707
 21
10635.001891237194
  0
LINE
  8
_0-1_
  6
CONTINUOUS
 62
    4
 10
49915.105432103475
 20
10913.544898502774
 11
51349.962310211231
 21
11487.487649745886
  0
LINE
  8
_0-1_
  6
CONTINUOUS
 62
    4
 10
51567.665207792132
 20
10943.230405793685
 11
51349.962310211231
 21
11487.487649745886
  0
LINE
  8
_0-1_
  6
CONTINUOUS
 62
    4
 10
52432.334792207861
 20
10943.230405793685
 11
52650.037689788747
 21
11487.487649745886
  0
LINE
  8
_0-1_
  6
CONTINUOUS
 62
    4
 10
54084.894567896503
 20
10913.544898502774
 11
52650.037689788747
 21
11487.487649745886
  0
LINE
  8
_0-4_
  6
CONTINUOUS
 62
    3
 10
51700.206781264002
 20
11649.126097395529
 11
51677.923340682755
 21
11704.834698848645
  0
LINE
  8
_0-4_
  6
CONTINUOUS
 62
    3
 10
52299.793218735977
 20
11649.126097395529
 11
52322.076659317237
 21
11704.834698848645
  0
LINE
  8
_0-0_
  6
CENTER1
 62
    4
 10
4000
 20
4700
 11
3999.9999999999914
 21
14400
  0
LINE
  8
_0-1_
  6
CONTINUOUS
 62
    4
 10
4000.0000000000141
 20
11714.292243176154
 11
4111.4172029062502
 21
11992.835250441713
  0
LINE
  8
_0-4_
  6
CONTINUOUS
 62
    3
 10
6625.7320818235203
 20
11008.649958103364
 11
6618.3042682964351
 21
10990.080424285658
  0
LINE
  8
_0-4_
  6
CONTINUOUS
 62
    3
 10
6432.6089301193833
 20
11064.358559556471
 11
6618.3042682964351
 21
10990.080424285658
  0
LINE
  8
_0-1_
  6
CONTINUOUS
 62
    4
 10
6395.4698624839721
 20
11079.214186610638
 11
6284.0526595777874
 21
10800.671179345143
  0
LINE
  8
_0-1_
  6
CONTINUOUS
 62
    4
 10
6042.6487199476187
 20
10897.232755197198
 11
6284.0526595777874
 21
10800.671179345143
  0
LINE
  8
_0-4_
  6
CONTINUOUS
 62
    3
 10
6287.7665663412927
 20
10756.104298182561
 11
6306.3361001589983
 21
10748.67648465548
  0
LINE
  8
_0-4_
  6
CONTINUOUS
 62
    3
 10
6324.9056339767012
 20
10848.951967271089
 11
6287.7665663412927
 21
10756.104298182561
  0
LINE
  8
_0-4_
  6
CONTINUOUS
 62
    3
 10
6432.6089301193833
 20
11064.358559556471
 11
6306.3361001589983
 21
10748.67648465548
  0
LINE
  8
_0-1_
  6
CONTINUOUS
 62
    4
 10
3999.9999999999914
 20
11714.292243176154
 11
3888.5827970937612
 21
11992.835250441713
  0
LINE
  8
_0-4_
  6
CONTINUOUS
 62
    3
 10
4000.0000000000086
 20
12058.942790832747
 11
6625.7320818235175
 21
11008.649958103357
  0
LINE
  8
_0-1_
  6
CONTINUOUS
 62
    4
 10
6395.4698624839721
 20
11079.214186610638
 11
4111.4172029062502
 21
11992.835250441713
  0
LINE
  8
_0-1_
  6
CONTINUOUS
 62
    4
 10
4111.4172029062502
 20
11992.835250441713
 11
6284.0526595777874
 21
10800.671179345143
  0
LINE
  8
_0-4_
  6
CONTINUOUS
 62
    3
 10
26180.825536695364
 20
8975.2597076141901
 11
26039.165817877845
 21
9329.4090046579604
  0
LINE
  8
_0-5_
  6
CONTINUOUS
 62
    7
 10
38042.648719947596
 20
11930.534952979433
 11
35999.999999999985
 21
12747.59444095839
  0
LINE
  8
_0-1_
  6
CONTINUOUS
 62
    4
 10
12000.000000000013
 20
11714.292243176162
 11
12111.417202906247
 21
11992.83525044172
  0
LINE
  8
_0-4_
  6
CONTINUOUS
 62
    3
 10
14625.732081823517
 20
11008.649958103371
 11
14618.304268296433
 21
10990.080424285663
  0
LINE
  8
_0-4_
  6
CONTINUOUS
 62
    3
 10
14432.608930119381
 20
11064.358559556478
 11
14618.304268296433
 21
10990.080424285663
  0
LINE
  8
_0-1_
  6
CONTINUOUS
 62
    4
 10
14395.469862483969
 20
11079.214186610645
 11
14284.052659577785
 21
10800.67117934515
  0
LINE
  8
_0-1_
  6
CONTINUOUS
 62
    4
 10
14042.648719947612
 20
10897.232755197205
 11
14284.052659577785
 21
10800.67117934515
  0
LINE
  8
_0-4_
  6
CONTINUOUS
 62
    3
 10
14287.76656634129
 20
10756.104298182569
 11
14306.336100158995
 21
10748.676484655487
  0
LINE
  8
_0-4_
  6
CONTINUOUS
 62
    3
 10
14324.905633976698
 20
10848.951967271096
 11
14287.76656634129
 21
10756.104298182569
  0
LINE
  8
_0-4_
  6
CONTINUOUS
 62
    3
 10
14432.608930119381
 20
11064.358559556478
 11
14306.336100158995
 21
10748.676484655487
  0
LINE
  8
_0-4_
  6
CONTINUOUS
 62
    3
 10
12000.000000000002
 20
12058.942790832754
 11
14625.732081823515
 21
11008.649958103364
  0
LINE
  8
_0-1_
  6
CONTINUOUS
 62
    4
 10
14395.469862483969
 20
11079.214186610645
 11
12111.417202906247
 21
11992.83525044172
  0
LINE
  8
_0-1_
  6
CONTINUOUS
 62
    4
 10
12111.417202906247
 20
11992.83525044172
 11
14284.052659577785
 21
10800.67117934515
  0
LINE
  8
_0-1_
  6
CONTINUOUS
 62
    4
 10
36000.000000000015
 20
12747.59444095839
 11
36111.417202906247
 21
13026.137448223948
  0
LINE
  8
_0-4_
  6
CONTINUOUS
 62
    3
 10
38625.732081823517
 20
12041.952155885599
 11
38618.30426829643
 21
12023.382622067891
  0
LINE
  8
_0-4_
  6
CONTINUOUS
 62
    3
 10
38432.608930119372
 20
12097.660757338706
 11
38618.30426829643
 21
12023.382622067891
  0
LINE
  8
_0-1_
  6
CONTINUOUS
 62
    4
 10
38395.469862483966
 20
12112.516384392873
 11
38284.052659577785
 21
11833.973377127379
  0
LINE
  8
_0-1_
  6
CONTINUOUS
 62
    4
 10
38042.648719947611
 20
11930.534952979433
 11
38284.052659577785
 21
11833.973377127379
  0
LINE
  8
_0-4_
  6
CONTINUOUS
 62
    3
 10
38287.766566341292
 20
11789.406495964797
 11
38306.336100158995
 21
11781.978682437715
  0
LINE
  8
_0-4_
  6
CONTINUOUS
 62
    3
 10
38324.905633976698
 20
11882.254165053324
 11
38287.766566341292
 21
11789.406495964797
  0
LINE
  8
_0-4_
  6
CONTINUOUS
 62
    3
 10
38432.608930119372
 20
12097.660757338706
 11
38306.336100158995
 21
11781.978682437715
  0
LINE
  8
_0-1_
  6
CONTINUOUS
 62
    4
 10
35999.999999999985
 20
12747.59444095839
 11
35888.582797093753
 21
13026.137448223948
  0
LINE
  8
_0-4_
  6
CONTINUOUS
 62
    3
 10
36000
 20
13092.244988614983
 11
33374.267918176491
 21
12041.952155885592
  0
LINE
  8
_0-4_
  6
CONTINUOUS
 62
    3
 10
33374.267918176483
 20
12041.952155885599
 11
33381.69573170357
 21
12023.382622067887
  0
LINE
  8
_0-4_
  6
CONTINUOUS
 62
    3
 10
33567.391069880621
 20
12097.660757338706
 11
33381.69573170357
 21
12023.382622067887
  0
LINE
  8
_0-1_
  6
CONTINUOUS
 62
    4
 10
33604.530137516034
 20
12112.516384392869
 11
35888.582797093753
 21
13026.137448223948
  0
LINE
  8
_0-1_
  6
CONTINUOUS
 62
    4
 10
33604.530137516034
 20
12112.516384392869
 11
33715.947340422223
 21
11833.973377127375
  0
LINE
  8
_0-1_
  6
CONTINUOUS
 62
    4
 10
33957.351280052389
 20
11930.534952979433
 11
33715.947340422223
 21
11833.973377127375
  0
LINE
  8
_0-1_
  6
CONTINUOUS
 62
    4
 10
35888.582797093753
 20
13026.137448223948
 11
33715.947340422223
 21
11833.973377127375
  0
LINE
  8
_0-4_
  6
CONTINUOUS
 62
    3
 10
33712.233433658716
 20
11789.406495964797
 11
33693.663899841005
 21
11781.978682437715
  0
LINE
  8
_0-4_
  6
CONTINUOUS
 62
    3
 10
33675.094366023302
 20
11882.254165053324
 11
33712.233433658716
 21
11789.406495964797
  0
LINE
  8
_0-4_
  6
CONTINUOUS
 62
    3
 10
33567.391069880621
 20
12097.660757338706
 11
33693.663899841005
 21
11781.978682437715
  0
LINE
  8
_0-4_
  6
CONTINUOUS
 62
    3
 10
36000
 20
13092.244988614983
 11
38625.732081823517
 21
12041.952155885592
  0
LINE
  8
_0-1_
  6
CONTINUOUS
 62
    4
 10
38395.469862483966
 20
12112.516384392873
 11
36111.417202906247
 21
13026.137448223948
  0
LINE
  8
_0-1_
  6
CONTINUOUS
 62
    4
 10
36111.417202906247
 20
13026.137448223948
 11
38284.052659577785
 21
11833.973377127379
  0
LINE
  8
_0-1_
  6
CONTINUOUS
 62
    4
 10
44000.000000000015
 20
11649.020820302947
 11
44111.417202906247
 21
11927.563827568505
  0
LINE
  8
_0-4_
  6
CONTINUOUS
 62
    3
 10
46625.732081823517
 20
10943.378535230155
 11
46618.30426829643
 21
10924.809001412446
  0
LINE
  8
_0-4_
  6
CONTINUOUS
 62
    3
 10
46432.608930119372
 20
10999.087136683263
 11
46618.30426829643
 21
10924.809001412446
  0
LINE
  8
_0-1_
  6
CONTINUOUS
 62
    4
 10
46395.469862483966
 20
11013.94276373743
 11
46284.052659577785
 21
10735.399756471936
  0
LINE
  8
_0-1_
  6
CONTINUOUS
 62
    4
 10
46042.648719947611
 20
10831.96133232399
 11
46284.052659577785
 21
10735.399756471936
  0
LINE
  8
_0-4_
  6
CONTINUOUS
 62
    3
 10
46287.766566341292
 20
10690.832875309354
 11
46306.336100158995
 21
10683.405061782272
  0
LINE
  8
_0-4_
  6
CONTINUOUS
 62
    3
 10
46324.905633976698
 20
10783.680544397881
 11
46287.766566341292
 21
10690.832875309354
  0
LINE
  8
_0-4_
  6
CONTINUOUS
 62
    3
 10
46432.608930119372
 20
10999.087136683263
 11
46306.336100158995
 21
10683.405061782272
  0
LINE
  8
_0-1_
  6
CONTINUOUS
 62
    4
 10
43999.999999999985
 20
11649.020820302947
 11
43888.582797093753
 21
11927.563827568505
  0
LINE
  8
_0-4_
  6
CONTINUOUS
 62
    3
 10
44000
 20
11993.67136795954
 11
41374.267918176491
 21
10943.378535230149
  0
LINE
  8
_0-4_
  6
CONTINUOUS
 62
    3
 10
41374.267918176483
 20
10943.378535230155
 11
41381.69573170357
 21
10924.809001412445
  0
LINE
  8
_0-4_
  6
CONTINUOUS
 62
    3
 10
41567.391069880628
 20
10999.087136683263
 11
41381.69573170357
 21
10924.809001412445
  0
LINE
  8
_0-1_
  6
CONTINUOUS
 62
    4
 10
41604.530137516034
 20
11013.942763737427
 11
43888.582797093753
 21
11927.563827568505
  0
LINE
  8
_0-1_
  6
CONTINUOUS
 62
    4
 10
41604.530137516034
 20
11013.942763737427
 11
41715.947340422223
 21
10735.399756471932
  0
LINE
  8
_0-1_
  6
CONTINUOUS
 62
    4
 10
41957.351280052389
 20
10831.96133232399
 11
41715.947340422223
 21
10735.399756471932
  0
LINE
  8
_0-1_
  6
CONTINUOUS
 62
    4
 10
43888.582797093753
 20
11927.563827568505
 11
41715.947340422223
 21
10735.399756471932
  0
LINE
  8
_0-4_
  6
CONTINUOUS
 62
    3
 10
41712.233433658716
 20
10690.832875309354
 11
41693.663899841005
 21
10683.405061782272
  0
LINE
  8
_0-4_
  6
CONTINUOUS
 62
    3
 10
41675.094366023302
 20
10783.680544397881
 11
41712.233433658716
 21
10690.832875309354
  0
LINE
  8
_0-4_
  6
CONTINUOUS
 62
    3
 10
41567.391069880628
 20
10999.087136683263
 11
41693.663899841005
 21
10683.405061782272
  0
LINE
  8
_0-4_
  6
CONTINUOUS
 62
    3
 10
44000
 20
11993.67136795954
 11
46625.732081823517
 21
10943.378535230149
  0
LINE
  8
_0-1_
  6
CONTINUOUS
 62
    4
 10
46395.469862483966
 20
11013.94276373743
 11
44111.417202906247
 21
11927.563827568505
  0
LINE
  8
_0-1_
  6
CONTINUOUS
 62
    4
 10
44111.417202906247
 20
11927.563827568505
 11
46284.052659577785
 21
10735.399756471936
  0
LINE
  8
_0-1_
  6
CONTINUOUS
 62
    4
 10
52000.206781264023
 20
12221.479941194739
 11
52111.623984170248
 21
12500.022948460297
  0
LINE
  8
_0-4_
  6
CONTINUOUS
 62
    3
 10
54625.938863087526
 20
11515.837656121948
 11
54618.511049560439
 21
11497.26812230424
  0
LINE
  8
_0-4_
  6
CONTINUOUS
 62
    3
 10
54432.815711383388
 20
11571.546257575055
 11
54618.511049560439
 21
11497.26812230424
  0
LINE
  8
_0-1_
  6
CONTINUOUS
 62
    4
 10
54395.676643747967
 20
11586.401884629222
 11
54284.259440841786
 21
11307.858877363728
  0
LINE
  8
_0-1_
  6
CONTINUOUS
 62
    4
 10
54042.855501211627
 20
11404.420453215782
 11
54284.259440841786
 21
11307.858877363728
  0
LINE
  8
_0-4_
  6
CONTINUOUS
 62
    3
 10
54287.973347605293
 20
11263.291996201146
 11
54306.542881423004
 21
11255.864182674064
  0
LINE
  8
_0-4_
  6
CONTINUOUS
 62
    3
 10
54325.112415240714
 20
11356.139665289671
 11
54287.973347605293
 21
11263.291996201146
  0
LINE
  8
_0-4_
  6
CONTINUOUS
 62
    3
 10
54432.815711383388
 20
11571.546257575055
 11
54306.542881423004
 21
11255.864182674064
  0
LINE
  8
_0-1_
  6
CONTINUOUS
 62
    4
 10
52000.206781264002
 20
12221.479941194739
 11
51888.789578357762
 21
12500.022948460297
  0
LINE
  8
_0-4_
  6
CONTINUOUS
 62
    3
 10
52000.206781264002
 20
12566.130488851331
 11
49374.4746994405
 21
11515.837656121941
  0
LINE
  8
_0-4_
  6
CONTINUOUS
 62
    3
 10
49374.474699440492
 20
11515.837656121948
 11
49381.902512967579
 21
11497.268122304236
  0
LINE
  8
_0-4_
  6
CONTINUOUS
 62
    3
 10
49567.59785114463
 20
11571.546257575055
 11
49381.902512967579
 21
11497.268122304236
  0
LINE
  8
_0-1_
  6
CONTINUOUS
 62
    4
 10
49604.736918780043
 20
11586.401884629218
 11
51888.789578357762
 21
12500.022948460297
  0
LINE
  8
_0-1_
  6
CONTINUOUS
 62
    4
 10
49604.736918780043
 20
11586.401884629218
 11
49716.154121686232
 21
11307.858877363724
  0
LINE
  8
_0-1_
  6
CONTINUOUS
 62
    4
 10
49957.558061316398
 20
11404.420453215782
 11
49716.154121686232
 21
11307.858877363724
  0
LINE
  8
_0-1_
  6
CONTINUOUS
 62
    4
 10
51888.789578357762
 20
12500.022948460297
 11
49716.154121686232
 21
11307.858877363724
  0
LINE
  8
_0-4_
  6
CONTINUOUS
 62
    3
 10
49712.440214922724
 20
11263.291996201146
 11
49693.870681105014
 21
11255.864182674064
  0
LINE
  8
_0-4_
  6
CONTINUOUS
 62
    3
 10
49675.301147287311
 20
11356.139665289671
 11
49712.440214922724
 21
11263.291996201146
  0
LINE
  8
_0-4_
  6
CONTINUOUS
 62
    3
 10
49567.59785114463
 20
11571.546257575055
 11
49693.870681105014
 21
11255.864182674064
  0
LINE
  8
_0-4_
  6
CONTINUOUS
 62
    3
 10
52000.206781264002
 20
12566.130488851331
 11
54625.938863087526
 21
11515.837656121941
  0
LINE
  8
_0-1_
  6
CONTINUOUS
 62
    4
 10
54395.676643747967
 20
11586.401884629222
 11
52111.623984170248
 21
12500.022948460297
  0
LINE
  8
_0-1_
  6
CONTINUOUS
 62
    4
 10
52111.623984170248
 20
12500.022948460297
 11
54284.259440841786
 21
11307.858877363728
  0
LINE
  8
_0-4_
  6
CONTINUOUS
 62
    3
 10
35699.999999999985
 20
12175.24059715918
 11
33888.901303494691
 21
11450.80111855705
  0
LINE
  8
_0-4_
  6
CONTINUOUS
 62
    3
 10
36299.999999999985
 20
12175.24059715918
 11
38111.098696505302
 21
11450.801118557052
  0
LINE
  8
_0-4_
  6
CONTINUOUS
 62
    3
 10
38103.670882978222
 20
11432.231584739347
 11
37769.419274259533
 21
10596.602562942622
  0
LINE
  8
_0-4_
  6
CONTINUOUS
 62
    3
 10
38111.098696505302
 20
11450.80111855705
 11
38296.794034682353
 21
11376.52298328623
  0
LINE
  8
_0-4_
  6
CONTINUOUS
 62
    3
 10
38296.794034682353
 20
11376.52298328623
 11
38289.366221155273
 21
11357.953449468525
  0
LINE
  8
_0-4_
  6
CONTINUOUS
 62
    3
 10
38103.670882978222
 20
11432.231584739347
 11
38289.366221155273
 21
11357.953449468525
  0
LINE
  8
_0-4_
  6
CONTINUOUS
 62
    3
 10
33888.901303494684
 20
11450.80111855705
 11
33703.205965317633
 21
11376.52298328623
  0
LINE
  8
_0-4_
  6
CONTINUOUS
 62
    3
 10
33703.205965317633
 20
11376.52298328623
 11
33710.633778844713
 21
11357.953449468525
  0
LINE
  8
_0-4_
  6
CONTINUOUS
 62
    3
 10
33896.329117021771
 20
11432.231584739349
 11
33710.633778844713
 21
11357.953449468525
  0
LINE
  8
_0-4_
  6
CONTINUOUS
 62
    3
 10
33896.329117021771
 20
11432.231584739349
 11
34230.580725740452
 21
10596.602562942622
  0
LINE
  8
_0-1_
  6
CONTINUOUS
 62
    4
 10
11999.999999999991
 20
11714.292243176162
 11
11888.582797093757
 21
11992.83525044172
  0
LINE
  8
_0-4_
  6
CONTINUOUS
 62
    3
 10
12000
 20
12058.942790832754
 11
9374.2679181764888
 21
11008.649958103364
  0
LINE
  8
_0-4_
  6
CONTINUOUS
 62
    3
 10
9374.267918176487
 20
11008.649958103371
 11
9381.6957317035703
 21
10990.080424285659
  0
LINE
  8
_0-4_
  6
CONTINUOUS
 62
    3
 10
9567.391069880623
 20
11064.358559556478
 11
9381.6957317035703
 21
10990.080424285659
  0
LINE
  8
_0-1_
  6
CONTINUOUS
 62
    4
 10
9604.5301375160343
 20
11079.214186610641
 11
11888.582797093757
 21
11992.83525044172
  0
LINE
  8
_0-1_
  6
CONTINUOUS
 62
    4
 10
9604.5301375160343
 20
11079.214186610641
 11
9715.947340422219
 21
10800.671179345147
  0
LINE
  8
_0-1_
  6
CONTINUOUS
 62
    4
 10
9957.3512800523895
 20
10897.232755197205
 11
9715.947340422219
 21
10800.671179345147
  0
LINE
  8
_0-1_
  6
CONTINUOUS
 62
    4
 10
11888.582797093757
 20
11992.83525044172
 11
9715.947340422219
 21
10800.671179345147
  0
LINE
  8
_0-4_
  6
CONTINUOUS
 62
    3
 10
9712.2334336587137
 20
10756.104298182569
 11
9693.663899841009
 21
10748.676484655487
  0
LINE
  8
_0-4_
  6
CONTINUOUS
 62
    3
 10
9675.0943660233061
 20
10848.951967271096
 11
9712.2334336587137
 21
10756.104298182569
  0
LINE
  8
_0-4_
  6
CONTINUOUS
 62
    3
 10
9567.391069880623
 20
11064.358559556478
 11
9693.663899841009
 21
10748.676484655487
  0
LINE
  8
_0-4_
  6
CONTINUOUS
 62
    3
 10
23770.64830739937
 20
12554.942790832762
 11
23770.64830739937
 21
9376.9225394845635
  0
LINE
  8
_0-4_
  6
CONTINUOUS
 62
    3
 10
26032.269266153715
 20
9346.6503839683064
 11
25846.573927976657
 21
9272.3722486974839
  0
LINE
  8
_0-4_
  6
CONTINUOUS
 62
    3
 10
25846.573927976657
 20
9272.3722486974839
 11
25846.573927976657
 21
9252.3722486974839
  0
LINE
  8
_0-4_
  6
CONTINUOUS
 62
    3
 10
25846.573927976657
 20
9252.3722486974839
 11
26039.165817877845
 21
9329.4090046579604
  0
LINE
  8
_0-4_
  6
CONTINUOUS
 62
    3
 10
8000
 20
4700
 11
16000
 21
4700
  0
LINE
  8
_0-4_
  6
CONTINUOUS
 62
    3
 10
24000
 20
4700
 11
32000
 21
4700
  0
LINE
  8
_1-a_
  6
CONTINUOUS
 62
    7
 10
3700
 20
10181.231814247345
 11
3700
 21
10381.231814247345
  0
LINE
  8
_1-a_
  6
CONTINUOUS
 62
    7
 10
4299.9999999999918
 20
10181.231814247345
 11
4299.9999999999918
 21
10381.231814247345
  0
CIRCLE
  8
_1-a_
  6
CONTINUOUS
 62
    5
 10
3700
 20
10181.231814247345
 40
20
  0
CIRCLE
  8
_1-a_
  6
CONTINUOUS
 62
    5
 10
3700
 20
10181.231814247345
 40
20
  0
CIRCLE
  8
_1-a_
  6
CONTINUOUS
 62
    5
 10
4299.9999999999918
 20
10181.231814247345
 40
20
  0
CIRCLE
  8
_1-a_
  6
CONTINUOUS
 62
    5
 10
4299.9999999999918
 20
10181.231814247345
 40
20
  0
LINE
  8
_1-a_
  6
CONTINUOUS
 62
    7
 10
11700.000000000011
 20
10181.231814247345
 11
11700.000000000011
 21
10381.231814247345
  0
LINE
  8
_1-a_
  6
CONTINUOUS
 62
    7
 10
12300.000000000004
 20
10181.231814247345
 11
12300.000000000004
 21
10381.231814247345
  0
CIRCLE
  8
_1-a_
  6
CONTINUOUS
 62
    5
 10
11700.000000000011
 20
10181.231814247345
 40
20
  0
CIRCLE
  8
_1-a_
  6
CONTINUOUS
 62
    5
 10
11700.000000000011
 20
10181.231814247345
 40
20
  0
CIRCLE
  8
_1-a_
  6
CONTINUOUS
 62
    5
 10
12300.000000000004
 20
10181.231814247345
 40
20
  0
CIRCLE
  8
_1-a_
  6
CONTINUOUS
 62
    5
 10
12300.000000000004
 20
10181.231814247345
 40
20
  0
LINE
  8
_1-a_
  6
CONTINUOUS
 62
    7
 10
35700
 20
10375.097747304202
 11
35700
 21
10575.097747304202
  0
LINE
  8
_1-a_
  6
CONTINUOUS
 62
    7
 10
36299.999999999985
 20
10375.097747304202
 11
36299.999999999985
 21
10575.097747304202
  0
CIRCLE
  8
_1-a_
  6
CONTINUOUS
 62
    5
 10
35700
 20
10375.097747304202
 40
20
  0
CIRCLE
  8
_1-a_
  6
CONTINUOUS
 62
    5
 10
35700
 20
10375.097747304202
 40
20
  0
CIRCLE
  8
_1-a_
  6
CONTINUOUS
 62
    5
 10
36299.999999999985
 20
10375.097747304202
 40
20
  0
CIRCLE
  8
_1-a_
  6
CONTINUOUS
 62
    5
 10
36299.999999999985
 20
10375.097747304202
 40
20
  0
LINE
  8
_1-a_
  6
CONTINUOUS
 62
    7
 10
43700
 20
10375.097747304193
 11
43700
 21
10575.097747304193
  0
LINE
  8
_1-a_
  6
CONTINUOUS
 62
    7
 10
44299.999999999985
 20
10375.097747304193
 11
44299.999999999985
 21
10575.097747304193
  0
CIRCLE
  8
_1-a_
  6
CONTINUOUS
 62
    5
 10
43700
 20
10375.097747304193
 40
20
  0
CIRCLE
  8
_1-a_
  6
CONTINUOUS
 62
    5
 10
43700
 20
10375.097747304193
 40
20
  0
CIRCLE
  8
_1-a_
  6
CONTINUOUS
 62
    5
 10
44299.999999999985
 20
10375.097747304193
 40
20
  0
CIRCLE
  8
_1-a_
  6
CONTINUOUS
 62
    5
 10
44299.999999999985
 20
10375.097747304193
 40
20
  0
LINE
  8
_1-a_
  6
CONTINUOUS
 62
    7
 10
51700
 20
10283.591594466692
 11
51700
 21
10483.591594466692
  0
LINE
  8
_1-a_
  6
CONTINUOUS
 62
    7
 10
52299.999999999978
 20
10283.591594466692
 11
52299.999999999978
 21
10483.591594466692
  0
CIRCLE
  8
_1-a_
  6
CONTINUOUS
 62
    5
 10
51700
 20
10283.591594466692
 40
20
  0
CIRCLE
  8
_1-a_
  6
CONTINUOUS
 62
    5
 10
51700
 20
10283.591594466692
 40
20
  0
CIRCLE
  8
_1-a_
  6
CONTINUOUS
 62
    5
 10
52299.999999999978
 20
10283.591594466692
 40
20
  0
CIRCLE
  8
_1-a_
  6
CONTINUOUS
 62
    5
 10
52299.999999999978
 20
10283.591594466692
 40
20
  0
LINE
  8
_0-1_
  6
CONTINUOUS
 62
    4
 10
21955.819206897329
 20
10729.788084788996
 11
22044.952969222319
 21
10506.953678976537
  0
LINE
  8
_0-1_
  6
CONTINUOUS
 62
    4
 10
21955.819206897333
 20
10729.788084788996
 11
22044.952969222319
 21
10506.953678976524
  0
LINE
  8
_0-3_
  6
CONTINUOUS
 62
    2
 10
21948.391393370239
 20
10748.357618606706
 11
21874.11325809942
 21
10934.052956783757
  0
LINE
  8
_0-4_
  6
CONTINUOUS
 62
    3
 10
21980.990106395289
 20
11041.42567378772
 11
20448.110702625087
 21
10428.273912279639
  0
LINE
  8
_0-4_
  6
CONTINUOUS
 62
    3
 10
20455.538516152174
 20
10409.704378461929
 11
20548.38618524071
 21
10446.84344609734
  0
LINE
  8
_0-4_
  6
CONTINUOUS
 62
    3
 10
20448.110702625087
 20
10428.273912279639
 11
20455.538516152174
 21
10409.704378461929
  0
LINE
  8
_0-1_
  6
CONTINUOUS
 62
    4
 10
21955.819206897329
 20
10729.788084788988
 11
16000
 21
8347.4604020300612
  0
LINE
  8
_0-2_
  6
DASHED1
 62
    7
 10
21948.391393370246
 20
10748.357618606691
 11
16000
 21
8369.001061258612
  0
LINE
  8
_0-1_
  6
CONTINUOUS
 62
    4
 10
21955.819206897326
 20
10729.788084788996
 11
16000
 21
8347.460402030054
  0
LINE
  8
_0-2_
  6
DASHED1
 62
    7
 10
21948.391393370239
 20
10748.357618606698
 11
16000
 21
8369.0010612585975
  0
LINE
  8
_0-3_
  6
CONTINUOUS
 62
    2
 10
21874.11325809942
 20
10934.052956783757
 11
16000
 21
8584.4076535440181
  0
LINE
  8
_0-3_
  6
DASHED3
 62
    4
 10
21911.252325734833
 20
10841.205287695228
 11
16000
 21
8476.7043574013078
  0
LINE
  8
_0-5_
  6
CONTINUOUS
 62
    7
 10
20400.259116581074
 20
10862.136566848943
 11
20422.54255716232
 21
10806.427965395827
  0
LINE
  8
_0-5_
  6
CONTINUOUS
 62
    7
 10
21536.714586224647
 20
11252.09677702071
 11
21662.987416185031
 21
10936.414702119719
  0
LINE
  8
_0-5_
  6
DASHED1
 62
    4
 10
20849.641834969545
 20
10977.267676518697
 11
20953.631224348683
 21
10717.29420307082
  0
LINE
  8
_0-5_
  6
DASHED1
 62
    4
 10
21109.615308417422
 20
11081.257065897842
 11
21213.60469779656
 21
10821.283592449965
  0
LINE
  8
_0-5_
  6
DASHED1
 62
    4
 10
20866.973399866067
 20
10933.938764277385
 11
21126.946873313944
 21
11037.928153656523
  0
LINE
  8
_0-5_
  6
DASHED1
 62
    4
 10
20884.304964762588
 20
10890.609852036072
 11
21144.278438210466
 21
10994.599241415212
  0
LINE
  8
_0-5_
  6
DASHED1
 62
    4
 10
20901.63652965911
 20
10847.280939794762
 11
21161.610003106991
 21
10951.270329173907
  0
LINE
  8
_0-5_
  6
DASHED1
 62
    4
 10
20918.968094555632
 20
10803.952027553451
 11
21178.941568003513
 21
10907.941416932596
  0
LINE
  8
_0-5_
  6
DASHED1
 62
    4
 10
20936.299659452157
 20
10760.623115312141
 11
21196.273132900034
 21
10864.612504691282
  0
LINE
  8
_0-5_
  6
CONTINUOUS
 62
    7
 10
20526.531946541458
 20
10546.454491947949
 11
21640.703975603785
 21
10992.123303572835
  0
LINE
  8
_0-5_
  6
CONTINUOUS
 62
    7
 10
20548.815387122704
 20
10490.745890494834
 11
21662.987416185031
 21
10936.414702119719
  0
LINE
  8
_0-5_
  6
CONTINUOUS
 62
    7
 10
20422.54255716232
 20
10806.427965395827
 11
20548.815387122704
 21
10490.745890494834
  0
LINE
  8
_0-1_
  6
CONTINUOUS
 62
    4
 10
22044.952969222311
 20
10506.953678976532
 11
16000
 21
8088.9724912876118
  0
LINE
  8
_0-4_
  6
CONTINUOUS
 62
    3
 10
21980.990106395289
 20
11041.42567378772
 11
21958.706665814043
 21
11097.134275240836
  0
LINE
  8
_0-4_
  6
CONTINUOUS
 62
    3
 10
19817.175754705175
 20
10973.553769755112
 11
19824.603568232254
 21
10954.984235937396
  0
LINE
  8
_0-4_
  6
CONTINUOUS
 62
    3
 10
20010.298906409309
 20
11029.262371208217
 11
19824.603568232254
 21
10954.984235937396
  0
LINE
  8
_0-1_
  6
CONTINUOUS
 62
    4
 10
20047.437974044718
 20
11044.11799826238
 11
20158.855176950907
 21
10765.574990996885
  0
LINE
  8
_0-1_
  6
CONTINUOUS
 62
    4
 10
20400.259116581074
 20
10862.136566848943
 11
20158.855176950907
 21
10765.574990996885
  0
LINE
  8
_0-4_
  6
CONTINUOUS
 62
    3
 10
20155.1412701874
 20
10721.008109834307
 11
20136.571736369697
 21
10713.580296307226
  0
LINE
  8
_0-4_
  6
CONTINUOUS
 62
    3
 10
20118.002202551994
 20
10813.855778922834
 11
20155.1412701874
 21
10721.008109834307
  0
LINE
  8
_0-4_
  6
CONTINUOUS
 62
    3
 10
20010.298906409309
 20
11029.262371208217
 11
20136.571736369697
 21
10713.580296307226
  0
LINE
  8
_0-4_
  6
CONTINUOUS
 62
    3
 10
23770.64830739937
 20
12554.942790832762
 11
19817.175754705175
 21
10973.553769755103
  0
LINE
  8
_0-5_
  6
CONTINUOUS
 62
    7
 10
22442.907836528677
 20
11679.1960548279
 11
22465.19127710992
 21
11623.487453374777
  0
LINE
  8
_0-1_
  6
CONTINUOUS
 62
    4
 10
22442.907836528677
 20
11679.1960548279
 11
22331.490633622445
 21
11957.739062093458
  0
LINE
  8
_0-5_
  6
CONTINUOUS
 62
    7
 10
20400.259116581074
 20
10862.136566848943
 11
22442.907836528677
 21
11679.1960548279
  0
LINE
  8
_0-5_
  6
CONTINUOUS
 62
    7
 10
20422.54255716232
 20
10806.427965395827
 11
22465.19127710992
 21
11623.487453374777
  0
LINE
  8
_0-1_
  6
CONTINUOUS
 62
    4
 10
20047.437974044718
 20
11044.11799826238
 11
22331.490633622445
 21
11957.739062093458
  0
LINE
  8
_0-1_
  6
CONTINUOUS
 62
    4
 10
22331.490633622445
 20
11957.739062093458
 11
20158.855176950907
 21
10765.574990996885
  0
LINE
  8
_1-a_
  6
CONTINUOUS
 62
    7
 10
22630.648307399377
 20
10181.231814247345
 11
22630.648307399377
 21
10381.231814247345
  0
CIRCLE
  8
_1-a_
  6
CONTINUOUS
 62
    5
 10
22630.648307399377
 20
10181.231814247345
 40
20
  0
CIRCLE
  8
_1-a_
  6
CONTINUOUS
 62
    5
 10
22630.648307399377
 20
10181.231814247345
 40
20
  0
LINE
  8
_1-a_
  6
CONTINUOUS
 62
    7
 10
22030.64830739937
 20
10181.231814247345
 11
22030.64830739937
 21
10381.231814247345
  0
CIRCLE
  8
_1-a_
  6
CONTINUOUS
 62
    5
 10
22030.64830739937
 20
10181.231814247345
 40
20
  0
CIRCLE
  8
_1-a_
  6
CONTINUOUS
 62
    5
 10
22030.64830739937
 20
10181.231814247345
 40
20
  0
LINE
  8
_1-a_
  6
CONTINUOUS
 62
    7
 10
22030.64830739937
 20
10181.231814247345
 11
22630.648307399377
 21
10181.231814247345
  0
TEXT
  8
_1-a_
 62
    5
 10
22050.648307399366
 20
10181.231814247345
 40
200
 41
1
 50
0
  1
30程度
  0
LINE
  8
_1-5_
  6
CONTINUOUS
 62
    7
 10
3378.3987355475574
 20
11012.648448408367
 11
3378.3987355475574
 21
12562.465531591391
  0
LINE
  8
_1-5_
  6
CONTINUOUS
 62
    7
 10
3378.3987355475574
 20
12562.465531591391
 11
3578.3987355475574
 21
12562.465531591391
  0
SOLID
  8
_1-5_
  6
CONTINUOUS
 62
    7
 10
3378.3987355475574
 20
11012.648448408367
 11
3356.2292692832643
 21
11112.648448408367
 12
3378.3987355475574
 22
11112.648448408367
 13
3378.3987355475574
 23
11112.648448408367
  0
LINE
  8
_1-5_
  6
CONTINUOUS
 62
    7
 10
3378.3987355475574
 20
11012.648448408367
 11
3356.2292692832643
 21
11112.648448408367
  0
LINE
  8
_1-5_
  6
CONTINUOUS
 62
    7
 10
3356.2292692832643
 20
11112.648448408367
 11
3378.3987355475574
 21
11112.648448408367
  0
LINE
  8
_1-5_
  6
CONTINUOUS
 62
    7
 10
3378.3987355475574
 20
11112.648448408367
 11
3378.3987355475574
 21
11012.648448408367
  0
TEXT
  8
_1-5_
 62
    5
 10
3578.3987355475574
 20
12462.465531591391
 40
200
 41
1
 50
0
  1
水返し板金
  0
LINE
  8
_1-5_
  6
CONTINUOUS
 62
    7
 10
11374.251981433827
 20
11010.989746762883
 11
11374.251981433827
 21
12560.806829945906
  0
LINE
  8
_1-5_
  6
CONTINUOUS
 62
    7
 10
11374.251981433827
 20
12560.806829945906
 11
11574.251981433827
 21
12560.806829945906
  0
SOLID
  8
_1-5_
  6
CONTINUOUS
 62
    7
 10
11374.251981433827
 20
11010.989746762883
 11
11352.082515169534
 21
11110.989746762883
 12
11374.251981433827
 22
11110.989746762883
 13
11374.251981433827
 23
11110.989746762883
  0
LINE
  8
_1-5_
  6
CONTINUOUS
 62
    7
 10
11374.251981433827
 20
11010.989746762883
 11
11352.082515169534
 21
11110.989746762883
  0
LINE
  8
_1-5_
  6
CONTINUOUS
 62
    7
 10
11352.082515169534
 20
11110.989746762883
 11
11374.251981433827
 21
11110.989746762883
  0
LINE
  8
_1-5_
  6
CONTINUOUS
 62
    7
 10
11374.251981433827
 20
11110.989746762883
 11
11374.251981433827
 21
11010.989746762883
  0
TEXT
  8
_1-5_
 62
    5
 10
11574.251981433827
 20
12460.806829945906
 40
200
 41
1
 50
0
  1
水返し板金
  0
LINE
  8
_1-5_
  6
CONTINUOUS
 62
    7
 10
21844.252953556945
 20
10986.730812652382
 11
21844.252953556945
 21
12536.547895835407
  0
LINE
  8
_1-5_
  6
CONTINUOUS
 62
    7
 10
21844.252953556945
 20
12536.547895835407
 11
22044.252953556945
 21
12536.547895835407
  0
SOLID
  8
_1-5_
  6
CONTINUOUS
 62
    7
 10
21844.252953556945
 20
10986.730812652382
 11
21822.08348729265
 21
11086.730812652382
 12
21844.252953556945
 22
11086.730812652382
 13
21844.252953556945
 23
11086.730812652382
  0
LINE
  8
_1-5_
  6
CONTINUOUS
 62
    7
 10
21844.252953556945
 20
10986.730812652382
 11
21822.08348729265
 21
11086.730812652382
  0
LINE
  8
_1-5_
  6
CONTINUOUS
 62
    7
 10
21822.08348729265
 20
11086.730812652382
 11
21844.252953556945
 21
11086.730812652382
  0
LINE
  8
_1-5_
  6
CONTINUOUS
 62
    7
 10
21844.252953556945
 20
11086.730812652382
 11
21844.252953556945
 21
10986.730812652382
  0
TEXT
  8
_1-5_
 62
    5
 10
22044.252953556945
 20
12436.547895835407
 40
200
 41
1
 50
0
  1
水返し板金
  0
LINE
  8
_1-5_
  6
CONTINUOUS
 62
    7
 10
36505.710896389224
 20
12092.956238603489
 11
36505.710896389224
 21
13642.773321786513
  0
LINE
  8
_1-5_
  6
CONTINUOUS
 62
    7
 10
36505.710896389224
 20
13642.773321786513
 11
36705.710896389224
 21
13642.773321786513
  0
SOLID
  8
_1-5_
  6
CONTINUOUS
 62
    7
 10
36505.710896389224
 20
12092.956238603489
 11
36483.541430124918
 21
12192.956238603489
 12
36505.710896389224
 22
12192.956238603489
 13
36505.710896389224
 23
12192.956238603489
  0
LINE
  8
_1-5_
  6
CONTINUOUS
 62
    7
 10
36505.710896389224
 20
12092.956238603489
 11
36483.541430124918
 21
12192.956238603489
  0
LINE
  8
_1-5_
  6
CONTINUOUS
 62
    7
 10
36483.541430124918
 20
12192.956238603489
 11
36505.710896389224
 21
12192.956238603489
  0
LINE
  8
_1-5_
  6
CONTINUOUS
 62
    7
 10
36505.710896389224
 20
12192.956238603489
 11
36505.710896389224
 21
12092.956238603489
  0
TEXT
  8
_1-5_
 62
    5
 10
36705.710896389224
 20
13542.773321786513
 40
200
 41
1
 50
0
  1
水返し板金
  0
LINE
  8
_1-5_
  6
CONTINUOUS
 62
    7
 10
52492.110249645521
 20
11572.199285031715
 11
52492.110249645521
 21
13122.016368214739
  0
LINE
  8
_1-5_
  6
CONTINUOUS
 62
    7
 10
52492.110249645521
 20
13122.016368214739
 11
52692.110249645521
 21
13122.016368214739
  0
SOLID
  8
_1-5_
  6
CONTINUOUS
 62
    7
 10
52492.110249645521
 20
11572.199285031715
 11
52469.940783381207
 21
11672.199285031715
 12
52492.110249645521
 22
11672.199285031715
 13
52492.110249645521
 23
11672.199285031715
  0
LINE
  8
_1-5_
  6
CONTINUOUS
 62
    7
 10
52492.110249645521
 20
11572.199285031715
 11
52469.940783381207
 21
11672.199285031715
  0
LINE
  8
_1-5_
  6
CONTINUOUS
 62
    7
 10
52469.940783381207
 20
11672.199285031715
 11
52492.110249645521
 21
11672.199285031715
  0
LINE
  8
_1-5_
  6
CONTINUOUS
 62
    7
 10
52492.110249645521
 20
11672.199285031715
 11
52492.110249645521
 21
11572.199285031715
  0
TEXT
  8
_1-5_
 62
    5
 10
52692.110249645521
 20
13022.016368214739
 40
200
 41
1
 50
0
  1
水返し板金
  0
LINE
  8
_1-5_
  6
CONTINUOUS
 62
    7
 10
5987.3693203765069
 20
10444.800566810198
 11
6486.5185342914065
 21
11309.352365868868
  0
LINE
  8
_1-5_
  6
CONTINUOUS
 62
    7
 10
6486.5185342914065
 20
11309.352365868868
 11
6686.5185342914065
 21
11309.352365868868
  0
SOLID
  8
_1-5_
  6
CONTINUOUS
 62
    7
 10
5987.3693203765069
 20
10444.800566810198
 11
6018.169999403287
 21
10542.487840320788
 12
6037.3693203765042
 22
10531.403107188642
 13
6037.3693203765042
 23
10531.403107188642
  0
LINE
  8
_1-5_
  6
CONTINUOUS
 62
    7
 10
5987.3693203765069
 20
10444.800566810198
 11
6018.169999403287
 21
10542.487840320788
  0
LINE
  8
_1-5_
  6
CONTINUOUS
 62
    7
 10
6018.169999403287
 20
10542.487840320788
 11
6037.3693203765042
 21
10531.403107188642
  0
LINE
  8
_1-5_
  6
CONTINUOUS
 62
    7
 10
6037.3693203765042
 20
10531.403107188642
 11
5987.3693203765069
 21
10444.800566810198
  0
TEXT
  8
_1-5_
 62
    5
 10
6686.5185342914065
 20
11209.352365868868
 40
200
 41
1
 50
0
  1
コーキング
  0
LINE
  8
_1-5_
  6
CONTINUOUS
 62
    7
 10
13987.369320376501
 20
10444.800566810191
 11
14486.518534291397
 21
11309.352365868861
  0
LINE
  8
_1-5_
  6
CONTINUOUS
 62
    7
 10
14486.518534291397
 20
11309.352365868861
 11
14686.518534291397
 21
11309.352365868861
  0
SOLID
  8
_1-5_
  6
CONTINUOUS
 62
    7
 10
13987.369320376501
 20
10444.800566810191
 11
14018.169999403279
 21
10542.48784032078
 12
14037.369320376501
 22
10531.403107188635
 13
14037.369320376501
 23
10531.403107188635
  0
LINE
  8
_1-5_
  6
CONTINUOUS
 62
    7
 10
13987.369320376501
 20
10444.800566810191
 11
14018.169999403279
 21
10542.48784032078
  0
LINE
  8
_1-5_
  6
CONTINUOUS
 62
    7
 10
14018.169999403279
 20
10542.48784032078
 11
14037.369320376501
 21
10531.403107188635
  0
LINE
  8
_1-5_
  6
CONTINUOUS
 62
    7
 10
14037.369320376501
 20
10531.403107188635
 11
13987.369320376501
 21
10444.800566810191
  0
TEXT
  8
_1-5_
 62
    5
 10
14686.518534291397
 20
11209.352365868861
 40
200
 41
1
 50
0
  1
コーキング
  0
LINE
  8
_1-5_
  6
CONTINUOUS
 62
    7
 10
20448.110702625087
 20
10428.273912279639
 11
19666.749133225625
 21
11781.631849561265
  0
LINE
  8
_1-5_
  6
CONTINUOUS
 62
    7
 10
19666.749133225625
 20
11781.631849561265
 11
19466.749133225625
 21
11781.631849561265
  0
SOLID
  8
_1-5_
  6
CONTINUOUS
 62
    7
 10
20448.110702625087
 20
10428.273912279639
 11
20417.310023598307
 21
10525.961185790231
 12
20398.110702625087
 22
10514.876452658084
 13
20398.110702625087
 23
10514.876452658084
  0
LINE
  8
_1-5_
  6
CONTINUOUS
 62
    7
 10
20448.110702625087
 20
10428.273912279639
 11
20417.310023598307
 21
10525.961185790231
  0
LINE
  8
_1-5_
  6
CONTINUOUS
 62
    7
 10
20417.310023598307
 20
10525.961185790231
 11
20398.110702625087
 21
10514.876452658084
  0
LINE
  8
_1-5_
  6
CONTINUOUS
 62
    7
 10
20398.110702625087
 20
10514.876452658084
 11
20448.110702625087
 21
10428.273912279639
  0
TEXT
  8
_1-5_
 62
    5
 10
18546.749133225625
 20
11681.631849561265
 40
200
 41
1
 50
0
  1
コーキング
  0
LINE
  8
_1-5_
  6
CONTINUOUS
 62
    7
 10
26168.002877053914
 20
8302.3702076728878
 11
25841.107951557795
 21
8868.5688273686119
  0
LINE
  8
_1-5_
  6
CONTINUOUS
 62
    7
 10
25841.107951557795
 20
8868.5688273686119
 11
25641.107951557795
 21
8868.5688273686119
  0
SOLID
  8
_1-5_
  6
CONTINUOUS
 62
    7
 10
26168.002877053914
 20
8302.3702076728878
 11
26137.202198027138
 21
8400.0574811834795
 12
26118.002877053914
 22
8388.972748051332
 13
26118.002877053914
 23
8388.972748051332
  0
LINE
  8
_1-5_
  6
CONTINUOUS
 62
    7
 10
26168.002877053914
 20
8302.3702076728878
 11
26137.202198027138
 21
8400.0574811834795
  0
LINE
  8
_1-5_
  6
CONTINUOUS
 62
    7
 10
26137.202198027138
 20
8400.0574811834795
 11
26118.002877053914
 21
8388.972748051332
  0
LINE
  8
_1-5_
  6
CONTINUOUS
 62
    7
 10
26118.002877053914
 20
8388.972748051332
 11
26168.002877053914
 21
8302.3702076728878
  0
TEXT
  8
_1-5_
 62
    5
 10
24721.107951557795
 20
8768.5688273686119
 40
200
 41
1
 50
0
  1
コーキング
  0
LINE
  8
_1-5_
  6
CONTINUOUS
 62
    7
 10
49549.691220249159
 20
10582.163135903931
 11
49320.365708021054
 21
10979.36657455477
  0
LINE
  8
_1-5_
  6
CONTINUOUS
 62
    7
 10
49320.365708021054
 20
10979.36657455477
 11
49120.365708021054
 21
10979.36657455477
  0
SOLID
  8
_1-5_
  6
CONTINUOUS
 62
    7
 10
49549.691220249159
 20
10582.163135903931
 11
49518.890541222376
 21
10679.850409414523
 12
49499.691220249159
 22
10668.765676282379
 13
49499.691220249159
 23
10668.765676282379
  0
LINE
  8
_1-5_
  6
CONTINUOUS
 62
    7
 10
49549.691220249159
 20
10582.163135903931
 11
49518.890541222376
 21
10679.850409414523
  0
LINE
  8
_1-5_
  6
CONTINUOUS
 62
    7
 10
49518.890541222376
 20
10679.850409414523
 11
49499.691220249159
 21
10668.765676282379
  0
LINE
  8
_1-5_
  6
CONTINUOUS
 62
    7
 10
49499.691220249159
 20
10668.765676282379
 11
49549.691220249159
 21
10582.163135903931
  0
TEXT
  8
_1-5_
 62
    5
 10
48200.365708021054
 20
10879.36657455477
 40
200
 41
1
 50
0
  1
コーキング
  0
LINE
  8
_1-5_
  6
CONTINUOUS
 62
    7
 10
5298.6293983182004
 20
11029.695429763466
 11
5298.6293983182004
 21
12565.65295459269
  0
LINE
  8
_1-5_
  6
CONTINUOUS
 62
    7
 10
5298.6293983182004
 20
12565.65295459269
 11
5498.6293983182004
 21
12565.65295459269
  0
SOLID
  8
_1-5_
  6
CONTINUOUS
 62
    7
 10
5298.6293983182004
 20
11029.695429763466
 11
5276.459932053911
 21
11129.695429763466
 12
5298.6293983182004
 22
11129.695429763466
 13
5298.6293983182004
 23
11129.695429763466
  0
LINE
  8
_1-5_
  6
CONTINUOUS
 62
    7
 10
5298.6293983182004
 20
11029.695429763466
 11
5276.459932053911
 21
11129.695429763466
  0
LINE
  8
_1-5_
  6
CONTINUOUS
 62
    7
 10
5276.459932053911
 20
11129.695429763466
 11
5298.6293983182004
 21
11129.695429763466
  0
LINE
  8
_1-5_
  6
CONTINUOUS
 62
    7
 10
5298.6293983182004
 20
11129.695429763466
 11
5298.6293983182004
 21
11029.695429763466
  0
TEXT
  8
_1-5_
 62
    5
 10
5498.6293983182004
 20
12465.65295459269
 40
200
 41
1
 50
0
  1
テッペン大中小
  0
LINE
  8
_1-5_
  6
CONTINUOUS
 62
    7
 10
13315.960963214724
 20
11073.024342004799
 11
13315.960963214724
 21
12554.941388164789
  0
LINE
  8
_1-5_
  6
CONTINUOUS
 62
    7
 10
13315.960963214724
 20
12554.941388164789
 11
13515.960963214724
 21
12554.941388164789
  0
SOLID
  8
_1-5_
  6
CONTINUOUS
 62
    7
 10
13315.960963214724
 20
11073.024342004799
 11
13293.791496950427
 21
11173.024342004799
 12
13315.960963214724
 22
11173.024342004799
 13
13315.960963214724
 23
11173.024342004799
  0
LINE
  8
_1-5_
  6
CONTINUOUS
 62
    7
 10
13315.960963214724
 20
11073.024342004799
 11
13293.791496950427
 21
11173.024342004799
  0
LINE
  8
_1-5_
  6
CONTINUOUS
 62
    7
 10
13293.791496950427
 20
11173.024342004799
 11
13315.960963214724
 21
11173.024342004799
  0
LINE
  8
_1-5_
  6
CONTINUOUS
 62
    7
 10
13315.960963214724
 20
11173.024342004799
 11
13315.960963214724
 21
11073.024342004799
  0
TEXT
  8
_1-5_
 62
    5
 10
13515.960963214724
 20
12454.941388164789
 40
200
 41
1
 50
0
  1
テッペン大中小
  0
LINE
  8
_1-5_
  6
CONTINUOUS
 62
    7
 10
21109.615308417422
 20
11081.257065897842
 11
21109.615308417422
 21
12543.950940920815
  0
LINE
  8
_1-5_
  6
CONTINUOUS
 62
    7
 10
21109.615308417422
 20
12543.950940920815
 11
20909.615308417422
 21
12543.950940920815
  0
SOLID
  8
_1-5_
  6
CONTINUOUS
 62
    7
 10
21109.615308417422
 20
11081.257065897842
 11
21087.445842153127
 21
11181.257065897842
 12
21109.615308417422
 22
11181.257065897842
 13
21109.615308417422
 23
11181.257065897842
  0
LINE
  8
_1-5_
  6
CONTINUOUS
 62
    7
 10
21109.615308417422
 20
11081.257065897842
 11
21087.445842153127
 21
11181.257065897842
  0
LINE
  8
_1-5_
  6
CONTINUOUS
 62
    7
 10
21087.445842153127
 20
11181.257065897842
 11
21109.615308417422
 21
11181.257065897842
  0
LINE
  8
_1-5_
  6
CONTINUOUS
 62
    7
 10
21109.615308417422
 20
11181.257065897842
 11
21109.615308417422
 21
11081.257065897842
  0
TEXT
  8
_1-5_
 62
    5
 10
19629.615308417422
 20
12443.950940920815
 40
200
 41
1
 50
0
  1
テッペン大中小
  0
LINE
  8
_1-5_
  6
CONTINUOUS
 62
    7
 10
27099.367026855809
 20
9364.2169629068958
 11
27099.367026855809
 21
10636.676256238012
  0
LINE
  8
_1-5_
  6
CONTINUOUS
 62
    7
 10
27099.367026855809
 20
10636.676256238012
 11
26899.367026855809
 21
10636.676256238012
  0
SOLID
  8
_1-5_
  6
CONTINUOUS
 62
    7
 10
27099.367026855809
 20
9364.2169629068958
 11
27077.197560591514
 21
9464.2169629068958
 12
27099.367026855809
 22
9464.2169629068958
 13
27099.367026855809
 23
9464.2169629068958
  0
LINE
  8
_1-5_
  6
CONTINUOUS
 62
    7
 10
27099.367026855809
 20
9364.2169629068958
 11
27077.197560591514
 21
9464.2169629068958
  0
LINE
  8
_1-5_
  6
CONTINUOUS
 62
    7
 10
27077.197560591514
 20
9464.2169629068958
 11
27099.367026855809
 21
9464.2169629068958
  0
LINE
  8
_1-5_
  6
CONTINUOUS
 62
    7
 10
27099.367026855809
 20
9464.2169629068958
 11
27099.367026855809
 21
9364.2169629068958
  0
TEXT
  8
_1-5_
 62
    5
 10
25619.367026855809
 20
10536.676256238012
 40
200
 41
1
 50
0
  1
テッペン大中小
  0
LINE
  8
_1-5_
  6
CONTINUOUS
 62
    7
 10
34406.733998440861
 20
12045.666062649187
 11
34406.733998440861
 21
13639.859889944057
  0
LINE
  8
_1-5_
  6
CONTINUOUS
 62
    7
 10
34406.733998440861
 20
13639.859889944057
 11
34206.733998440861
 21
13639.859889944057
  0
SOLID
  8
_1-5_
  6
CONTINUOUS
 62
    7
 10
34406.733998440861
 20
12045.666062649187
 11
34384.56453217657
 21
12145.666062649187
 12
34406.733998440861
 22
12145.666062649187
 13
34406.733998440861
 23
12145.666062649187
  0
LINE
  8
_1-5_
  6
CONTINUOUS
 62
    7
 10
34406.733998440861
 20
12045.666062649187
 11
34384.56453217657
 21
12145.666062649187
  0
LINE
  8
_1-5_
  6
CONTINUOUS
 62
    7
 10
34384.56453217657
 20
12145.666062649187
 11
34406.733998440861
 21
12145.666062649187
  0
LINE
  8
_1-5_
  6
CONTINUOUS
 62
    7
 10
34406.733998440861
 20
12145.666062649187
 11
34406.733998440861
 21
12045.666062649187
  0
TEXT
  8
_1-5_
 62
    5
 10
32926.733998440861
 20
13539.859889944057
 40
200
 41
1
 50
0
  1
テッペン大中小
  0
LINE
  8
_1-5_
  6
CONTINUOUS
 62
    7
 10
42666.707471888745
 20
11051.081831372889
 11
42666.707471888745
 21
13117.35782138453
  0
LINE
  8
_1-5_
  6
CONTINUOUS
 62
    7
 10
42666.707471888745
 20
13117.35782138453
 11
42866.707471888745
 21
13117.35782138453
  0
SOLID
  8
_1-5_
  6
CONTINUOUS
 62
    7
 10
42666.707471888745
 20
11051.081831372889
 11
42644.538005624447
 21
11151.081831372889
 12
42666.707471888745
 22
11151.081831372889
 13
42666.707471888745
 23
11151.081831372889
  0
LINE
  8
_1-5_
  6
CONTINUOUS
 62
    7
 10
42666.707471888745
 20
11051.081831372889
 11
42644.538005624447
 21
11151.081831372889
  0
LINE
  8
_1-5_
  6
CONTINUOUS
 62
    7
 10
42644.538005624447
 20
11151.081831372889
 11
42666.707471888745
 21
11151.081831372889
  0
LINE
  8
_1-5_
  6
CONTINUOUS
 62
    7
 10
42666.707471888745
 20
11151.081831372889
 11
42666.707471888745
 21
11051.081831372889
  0
TEXT
  8
_1-5_
 62
    5
 10
42866.707471888745
 20
13017.35782138453
 40
200
 41
1
 50
0
  1
テッペン大中小
  0
LINE
  8
_1-5_
  6
CONTINUOUS
 62
    7
 10
50666.914253152747
 20
11623.540952264681
 11
50666.914253152747
 21
13127.481391943304
  0
LINE
  8
_1-5_
  6
CONTINUOUS
 62
    7
 10
50666.914253152747
 20
13127.481391943304
 11
50866.914253152747
 21
13127.481391943304
  0
SOLID
  8
_1-5_
  6
CONTINUOUS
 62
    7
 10
50666.914253152747
 20
11623.540952264681
 11
50644.744786888456
 21
11723.540952264681
 12
50666.914253152747
 22
11723.540952264681
 13
50666.914253152747
 23
11723.540952264681
  0
LINE
  8
_1-5_
  6
CONTINUOUS
 62
    7
 10
50666.914253152747
 20
11623.540952264681
 11
50644.744786888456
 21
11723.540952264681
  0
LINE
  8
_1-5_
  6
CONTINUOUS
 62
    7
 10
50644.744786888456
 20
11723.540952264681
 11
50666.914253152747
 21
11723.540952264681
  0
LINE
  8
_1-5_
  6
CONTINUOUS
 62
    7
 10
50666.914253152747
 20
11723.540952264681
 11
50666.914253152747
 21
11623.540952264681
  0
TEXT
  8
_1-5_
 62
    5
 10
50866.914253152747
 20
13027.481391943304
 40
200
 41
1
 50
0
  1
テッペン大中小
  0
LINE
  8
_1-5_
  6
CONTINUOUS
 62
    7
 10
12076.798265063033
 20
8903.2940390320455
 11
12347.292142146171
 21
9371.8031772763297
  0
LINE
  8
_1-5_
  6
CONTINUOUS
 62
    7
 10
12347.292142146171
 20
9371.8031772763297
 11
12547.292142146171
 21
9371.8031772763297
  0
SOLID
  8
_1-5_
  6
CONTINUOUS
 62
    7
 10
12076.798265063033
 20
8903.2940390320455
 11
12107.598944089812
 21
9000.9813125426372
 12
12126.798265063033
 22
8989.8965794104897
 13
12126.798265063033
 23
8989.8965794104897
  0
LINE
  8
_1-5_
  6
CONTINUOUS
 62
    7
 10
12076.798265063033
 20
8903.2940390320455
 11
12107.598944089812
 21
9000.9813125426372
  0
LINE
  8
_1-5_
  6
CONTINUOUS
 62
    7
 10
12107.598944089812
 20
9000.9813125426372
 11
12126.798265063033
 21
8989.8965794104897
  0
LINE
  8
_1-5_
  6
CONTINUOUS
 62
    7
 10
12126.798265063033
 20
8989.8965794104897
 11
12076.798265063033
 21
8903.2940390320455
  0
TEXT
  8
_1-5_
 62
    5
 10
12547.292142146171
 20
9271.8031772763297
 40
200
 41
1
 50
0
  1
垂木より一回り小さいもの
  0
LINE
  8
_0-4_
  6
CONTINUOUS
 62
    3
 10
8000
 20
14700
 11
16000
 21
14700
  0
LINE
  8
_0-4_
  6
CONTINUOUS
 62
    3
 10
24000
 20
14700
 11
32000
 21
14700
  0
LINE
  8
_0-4_
  6
CONTINUOUS
 62
    3
 10
32000
 20
14700
 11
40000
 21
14700
  0
LINE
  8
_0-4_
  6
CONTINUOUS
 62
    3
 10
40000
 20
14700
 11
48000
 21
14700
  0
LINE
  8
_0-4_
  6
CONTINUOUS
 62
    3
 10
48000
 20
14700
 11
56000
 21
14700
  0
LINE
  8
_0-4_
  6
CONTINUOUS
 62
    3
 10
8000
 20
14400
 11
16000
 21
14400
  0
LINE
  8
_0-4_
  6
CONTINUOUS
 62
    3
 10
10000
 20
14700
 11
10000
 21
14400
  0
LINE
  8
_0-4_
  6
CONTINUOUS
 62
    3
 10
12000
 20
14700
 11
12000
 21
14400
  0
LINE
  8
_0-4_
  6
CONTINUOUS
 62
    3
 10
16000
 20
14400
 11
24000
 21
14400
  0
LINE
  8
_0-4_
  6
CONTINUOUS
 62
    3
 10
18000
 20
14700
 11
18000
 21
14400
  0
LINE
  8
_0-4_
  6
CONTINUOUS
 62
    3
 10
20000
 20
14700
 11
20000
 21
14400
  0
LINE
  8
_0-4_
  6
CONTINUOUS
 62
    3
 10
24000
 20
14400
 11
32000
 21
14400
  0
LINE
  8
_0-4_
  6
CONTINUOUS
 62
    3
 10
26000
 20
14700
 11
26000
 21
14400
  0
LINE
  8
_0-4_
  6
CONTINUOUS
 62
    3
 10
28000
 20
14700
 11
28000
 21
14400
  0
LINE
  8
_0-4_
  6
CONTINUOUS
 62
    3
 10
32000
 20
14400
 11
40000
 21
14400
  0
LINE
  8
_0-4_
  6
CONTINUOUS
 62
    3
 10
34000
 20
14700
 11
34000
 21
14400
  0
LINE
  8
_0-4_
  6
CONTINUOUS
 62
    3
 10
36000
 20
14700
 11
36000
 21
14400
  0
LINE
  8
_0-4_
  6
CONTINUOUS
 62
    3
 10
40000
 20
14400
 11
48000
 21
14400
  0
LINE
  8
_0-4_
  6
CONTINUOUS
 62
    3
 10
42000
 20
14700
 11
42000
 21
14400
  0
LINE
  8
_0-4_
  6
CONTINUOUS
 62
    3
 10
44000
 20
14700
 11
44000
 21
14400
  0
LINE
  8
_0-4_
  6
CONTINUOUS
 62
    3
 10
48000
 20
14400
 11
56000
 21
14400
  0
LINE
  8
_0-4_
  6
CONTINUOUS
 62
    3
 10
50000
 20
14700
 11
50000
 21
14400
  0
LINE
  8
_0-4_
  6
CONTINUOUS
 62
    3
 10
52000
 20
14700
 11
52000
 21
14400
  0
TEXT
  8
_0-1_
 62
    4
 10
10257.360241400354
 20
14450
 40
200
 41
1
 50
0
  1
2×4コロニアル
  0
TEXT
  8
_0-1_
 62
    4
 10
18157.360241400354
 20
14450
 40
200
 41
1
 50
0
  1
片流れコロニアル
  0
TEXT
  8
_0-1_
 62
    4
 10
26257.360241400351
 20
14450
 40
200
 41
1
 50
0
  1
下屋コロニアル
  0
TEXT
  8
_0-1_
 62
    4
 10
34757.360241400354
 20
14450
 40
200
 41
1
 50
0
  1
瓦棒
  0
TEXT
  8
_0-1_
 62
    4
 10
42357.360241400354
 20
14450
 40
200
 41
1
 50
0
  1
板金（横葺）
  0
TEXT
  8
_0-1_
 62
    4
 10
50257.360241400354
 20
14450
 40
200
 41
1
 50
0
  1
板金（緩勾配）
  0
TEXT
  8
_0-1_
 62
    4
 10
48257.360241400354
 20
14450
 40
200
 41
1
 50
0
  1
テッペン大中小
  0
TEXT
  8
_0-1_
 62
    4
 10
40257.360241400354
 20
14450
 40
200
 41
1
 50
0
  1
テッペン大中小
  0
TEXT
  8
_0-1_
 62
    4
 10
32257.360241400351
 20
14450
 40
200
 41
1
 50
0
  1
テッペン大中小
  0
TEXT
  8
_0-1_
 62
    4
 10
24257.360241400354
 20
14450
 40
200
 41
1
 50
0
  1
テッペン大中小
  0
TEXT
  8
_0-1_
 62
    4
 10
16257.360241400354
 20
14450
 40
200
 41
1
 50
0
  1
テッペン大中小
  0
TEXT
  8
_0-1_
 62
    4
 10
8257.3602414003544
 20
14450
 40
200
 41
1
 50
0
  1
テッペン大中小
  0
LINE
  8
_0-4_
  6
CONTINUOUS
 62
    3
 10
0
 20
14700
 11
8000
 21
14700
  0
LINE
  8
_0-4_
  6
CONTINUOUS
 62
    3
 10
0
 20
14400
 11
8000
 21
14400
  0
LINE
  8
_0-4_
  6
CONTINUOUS
 62
    3
 10
2000
 20
14700
 11
2000
 21
14400
  0
LINE
  8
_0-4_
  6
CONTINUOUS
 62
    3
 10
4000
 20
14700
 11
4000
 21
14400
  0
TEXT
  8
_0-1_
 62
    4
 10
2457.3602414003544
 20
14450
 40
200
 41
1
 50
0
  1
コロニアル
  0
TEXT
  8
_0-1_
 62
    4
 10
257.36024140035454
 20
14450
 40
200
 41
1
 50
0
  1
テッペン大中小
  0
TEXT
  8
_0-1_
 62
    4
 10
15233.854611792398
 20
14450
 40
200
 41
1
 50
0
  1
S=1/5
  0
TEXT
  8
_0-1_
 62
    4
 10
23233.854611792398
 20
14450
 40
200
 41
1
 50
0
  1
S=1/5
  0
TEXT
  8
_0-1_
 62
    4
 10
31233.854611792402
 20
14450
 40
200
 41
1
 50
0
  1
S=1/5
  0
TEXT
  8
_0-1_
 62
    4
 10
39233.854611792398
 20
14450
 40
200
 41
1
 50
0
  1
S=1/5
  0
TEXT
  8
_0-1_
 62
    4
 10
47233.854611792398
 20
14450
 40
200
 41
1
 50
0
  1
S=1/5
  0
TEXT
  8
_0-1_
 62
    4
 10
55233.854611792391
 20
14450
 40
200
 41
1
 50
0
  1
S=1/5
  0
TEXT
  8
_0-1_
 62
    4
 10
7233.8546117923979
 20
14450
 40
200
 41
1
 50
0
  1
S=1/5
  0
LINE
  8
_0-4_
  6
CONTINUOUS
 62
    3
 10
16000
 20
14700
 11
24000
 21
14700
  0
LINE
  8
_0-4_
  6
CONTINUOUS
 62
    3
 10
4000.0000000000027
 20
12058.942790832747
 11
1374.2679181764943
 21
11008.649958103357
  0
LINE
  8
_0-4_
  6
CONTINUOUS
 62
    3
 10
1374.2679181764913
 20
11008.649958103364
 11
1381.6957317035731
 21
10990.080424285652
  0
LINE
  8
_0-4_
  6
CONTINUOUS
 62
    3
 10
1567.3910698806253
 20
11064.358559556471
 11
1381.6957317035731
 21
10990.080424285652
  0
LINE
  8
_0-1_
  6
CONTINUOUS
 62
    4
 10
1604.5301375160393
 20
11079.214186610634
 11
3888.5827970937612
 21
11992.835250441713
  0
LINE
  8
_0-1_
  6
CONTINUOUS
 62
    4
 10
1604.5301375160393
 20
11079.214186610634
 11
1715.947340422224
 21
10800.67117934514
  0
LINE
  8
_0-1_
  6
CONTINUOUS
 62
    4
 10
1957.3512800523929
 20
10897.232755197198
 11
1715.947340422224
 21
10800.67117934514
  0
LINE
  8
_0-1_
  6
CONTINUOUS
 62
    4
 10
3888.5827970937612
 20
11992.835250441713
 11
1715.947340422224
 21
10800.67117934514
  0
LINE
  8
_0-4_
  6
CONTINUOUS
 62
    3
 10
1712.233433658716
 20
10756.104298182561
 11
1693.6638998410131
 21
10748.67648465548
  0
LINE
  8
_0-4_
  6
CONTINUOUS
 62
    3
 10
1675.0943660233106
 20
10848.951967271089
 11
1712.233433658716
 21
10756.104298182561
  0
LINE
  8
_0-4_
  6
CONTINUOUS
 62
    3
 10
1567.3910698806253
 20
11064.358559556471
 11
1693.6638998410131
 21
10748.67648465548
  0
LINE
  8
_1-a_
  6
CONTINUOUS
 62
    7
 10
3700
 20
10181.231814247345
 11
4299.9999999999918
 21
10181.231814247345
  0
TEXT
  8
_1-a_
 62
    5
 10
3719.9999999999991
 20
10181.231814247345
 40
200
 41
1
 50
0
  1
30程度
  0
LINE
  8
_1-a_
  6
CONTINUOUS
 62
    7
 10
11700.000000000011
 20
10181.231814247345
 11
12300.000000000004
 21
10181.231814247345
  0
TEXT
  8
_1-a_
 62
    5
 10
11720.000000000011
 20
10181.231814247345
 40
200
 41
1
 50
0
  1
30程度
  0
LINE
  8
_1-a_
  6
CONTINUOUS
 62
    7
 10
35700
 20
10375.097747304202
 11
36299.999999999985
 21
10375.097747304202
  0
TEXT
  8
_1-a_
 62
    5
 10
35720
 20
10375.097747304202
 40
200
 41
1
 50
0
  1
30程度
  0
LINE
  8
_1-a_
  6
CONTINUOUS
 62
    7
 10
43700
 20
10375.097747304193
 11
44299.999999999985
 21
10375.097747304193
  0
TEXT
  8
_1-a_
 62
    5
 10
43720
 20
10375.097747304193
 40
200
 41
1
 50
0
  1
30程度
  0
LINE
  8
_1-a_
  6
CONTINUOUS
 62
    7
 10
51700
 20
10283.591594466692
 11
52299.999999999978
 21
10283.591594466692
  0
TEXT
  8
_1-a_
 62
    5
 10
51720.000000000007
 20
10283.591594466692
 40
200
 41
1
 50
0
  1
30程度
  0
ENDSEC
  0
EOF
