  0
SECTION
  2
HEADER
  9
$ACADVER
  1
AC1009
  9
$INSBASE
 10
0
 20
0
 30
0
  9
$EXTMIN
 10
0
 20
0
  9
$EXTMAX
 10
42000
 20
29700
  9
$LIMMIN
 10
0
 20
0
  9
$LIMMAX
 10
42000
 20
29700
  9
$LTSCALE
 40
100
  0
ENDSEC
  0
SECTION
  2
TABLES
  0
TABLE
  2
LTYPE
 70
     9
  0
LTYPE
  2
CONTINUOUS
 70
    64
  3
実線
 72
    65
 73
     0
 40
0.0
  0
LTYPE
  2
DASHED1
 70
    64
  3
--  --  --  --  --  --  --  --  
 72
    65
 73
     2
 40
2.5
 49
1.25
 49
-1.25
  0
LTYPE
  2
DASHED2
 70
    64
  3
----    ----    ----    ----    
 72
    65
 73
     2
 40
5.0
 49
2.5
 49
-2.5
  0
LTYPE
  2
DASHED3
 70
    64
  3
------  ------  ------  ------  
 72
    65
 73
     2
 40
5.0
 49
3.75
 49
-1.25
  0
LTYPE
  2
CENTER1
 70
    64
  3
----- - ----- - ----- - ----- - 
 72
    65
 73
     4
 40
10.0
 49
6.25
 49
-1.25
 49
1.25
 49
-1.25
  0
LTYPE
  2
CENTER2
 70
    64
  3
----------  --  ----------  --  
 72
    65
 73
     4
 40
20.0
 49
12.5
 49
-2.5
 49
2.5
 49
-2.5
  0
LTYPE
  2
PHANTOM1
 70
    64
  3
--- - - --- - - --- - - --- - - 
 72
    65
 73
     6
 40
10.0
 49
3.25
 49
-1.25
 49
1.25
 49
-1.25
 49
1.25
 49
-1.25
  0
LTYPE
  2
PHANTOM2
 70
    64
  3
--------  -  -  --------  -  -  
 72
    65
 73
     6
 40
20.0
 49
10.0
 49
-2.5
 49
1.25
 49
-2.5
 49
1.25
 49
-2.5
  0
LTYPE
  2
DOT
 70
    64
  3
-   -   -   -   -   -   -   -   
 72
    65
 73
     2
 40
2.5
 49
0.625
 49
-1.875
  0
LTYPE
  2
DUMMY
 70
    64
  3
ダミー
 72
    65
 73
     0
 40
0.0
  0
LTYPE
  2
RAND1
 70
    64
  3
ランダム線1
 72
    65
 73
     4
 40
10.0
 49
1.0
 49
-2.0
 49
3.0
 49
-4.0
  0
LTYPE
  2
RAND2
 70
    64
  3
ランダム線2
 72
    65
 73
     4
 40
14.0
 49
2.0
 49
-3.0
 49
4.0
 49
-5.0
  0
LTYPE
  2
RAND3
 70
    64
  3
ランダム線3
 72
    65
 73
     4
 40
18.0
 49
3.0
 49
-4.0
 49
5.0
 49
-6.0
  0
LTYPE
  2
RAND4
 70
    64
  3
ランダム線4
 72
    65
 73
     4
 40
22.0
 49
4.0
 49
-5.0
 49
6.0
 49
-7.0
  0
LTYPE
  2
RAND5
 70
    64
  3
ランダム線5
 72
    65
 73
     4
 40
26.0
 49
5.0
 49
-6.0
 49
7.0
 49
-8.0
  0
LTYPE
  2
LONG1
 70
    64
  3
----------  --  ----------  --  
 72
    65
 73
     4
 40
40.0
 49
32.5
 49
-2.5
 49
2.5
 49
-2.5
  0
LTYPE
  2
LONG2
 70
    64
  3
--------  -  -  --------  -  -  
 72
    65
 73
     6
 40
40.0
 49
30.0
 49
-2.5
 49
1.25
 49
-2.5
 49
1.25
 49
-2.5
  0
LTYPE
  2
LONG3
 70
    64
  3
+++++++++++++++..+++++++++++++++
 72
    65
 73
     2
 40
40.0
 49
37.5
 49
-2.5
  0
LTYPE
  2
LONG4
 70
    64
  3
+++++++++++++++..+++++++++++++++
 72
    65
 73
     2
 40
80.0
 49
75.0
 49
-5.0
  0
LTYPE
  2
LONG5
 70
    64
  3
----------  --  ----------  --  
 72
    65
 73
     4
 40
60.0
 49
37.5
 49
-7.5
 49
7.5
 49
-7.5
  0
LTYPE
  2
dashed
 70
   64
  3
-------   -------------   ------
 72
   65
 73
    2
 40
7.5
 49
6
 49
-1.5
  0
LTYPE
  2
dashed_spaced
 70
   64
  3
----        --------        ----
 72
   65
 73
    2
 40
12
 49
6
 49
-6
  0
LTYPE
  2
long_dashed_dotted
 70
   64
  3
------------- --- --------------
 72
   65
 73
    4
 40
15.25
 49
12
 49
-1.5
 49
0.25
 49
-1.5
  0
LTYPE
  2
long_dashed_double-dotted
 70
   64
  3
----------- --- --- ------------
 72
   65
 73
    6
 40
17
 49
12
 49
-1.5
 49
0.25
 49
-1.5
 49
0.25
 49
-1.5
  0
LTYPE
  2
long_dashed_triplicate-dotted
 70
   64
  3
--------- --- --- --- ----------
 72
   65
 73
    8
 40
18.75
 49
12
 49
-1.5
 49
0.25
 49
-1.5
 49
0.25
 49
-1.5
 49
0.25
 49
-1.5
  0
LTYPE
  2
dotted
 70
   64
  3
   -       -       -       -    
 72
   65
 73
    2
 40
1.75
 49
0.25
 49
-1.5
  0
LTYPE
  2
chain
 70
   64
  3
-------------- -- --------------
 72
   65
 73
    4
 40
18.5
 49
12
 49
-1.5
 49
3.5
 49
-1.5
  0
LTYPE
  2
chain_double_dash
 70
   64
  3
------------ -- -- -------------
 72
   65
 73
    6
 40
23.5
 49
12
 49
-1.5
 49
3.5
 49
-1.5
 49
3.5
 49
-1.5
  0
LTYPE
  2
dashed_dotted
 70
   64
  3
-----------     -     ----------
 72
   65
 73
    4
 40
9.25
 49
6
 49
-1.5
 49
0.25
 49
-1.5
  0
LTYPE
  2
double-dashed_dotted
 70
   64
  3
------   -----------   -   -----
 72
   65
 73
    6
 40
16.75
 49
6
 49
-1.5
 49
6
 49
-1.5
 49
0.25
 49
-1.5
  0
LTYPE
  2
dashed_double-dotted
 70
   64
  3
---------    -    -    ---------
 72
   65
 73
    6
 40
11
 49
6
 49
-1.5
 49
0.25
 49
-1.5
 49
0.25
 49
-1.5
  0
LTYPE
  2
double-dashed_double-dotted
 70
   64
  3
-----   ---------   -   -   ----
 72
   65
 73
    8
 40
18.5
 49
6
 49
-1.5
 49
6
 49
-1.5
 49
0.25
 49
-1.5
 49
0.25
 49
-1.5
  0
LTYPE
  2
dashed_triplicate-dotted
 70
   64
  3
-------    -    -    -    ------
 72
   65
 73
    8
 40
12.75
 49
6
 49
-1.5
 49
0.25
 49
-1.5
 49
0.25
 49
-1.5
 49
0.25
 49
-1.5
  0
LTYPE
  2
double-dashed_triplicate-dotted
 70
   64
  3
-----  ---------  -  -  -  -----
 72
   65
 73
   10
 40
20.25
 49
6
 49
-1.5
 49
6
 49
-1.5
 49
0.25
 49
-1.5
 49
0.25
 49
-1.5
 49
0.25
 49
-1.5
  0
LTYPE
  2
undefined
 70
   64
  3
--------------------------------
 72
   65
 73
    0
 40
0
  0
ENDTAB
  0
TABLE
  2
STYLE
  5
3
100
AcDbSymbolTable
 70
     1
  0
STYLE
  5
10
100
AcDbSymbolTableRecord
100
AcDbTextStyleTableRecord
  2
STANDARD
 70
     0
 40
0.0
 41
1.0
 50
0.0
 71
     0
 42
0.2
  3
txt
  4
bigfont.shx
  0
STYLE
  5
26
100
AcDbSymbolTableRecord
100
AcDbTextStyleTableRecord
  2
TATEGAKI
 70
    68
 40
0.0
 41
1.0
 50
0.0
 71
     0
 42
1.0
  3
txt
  4
bigfont.shx
  0
ENDTAB
  0
TABLE
  2
LAYER
 70
    8
  0
LAYER
  2
_0-0_
 70
   64
 62
    7
  6
CONTINUOUS
  0
LAYER
  2
_0-1_
 70
   64
 62
    7
  6
CONTINUOUS
  0
LAYER
  2
_0-3_
 70
   64
 62
    7
  6
CONTINUOUS
  0
LAYER
  2
_0-4_
 70
   64
 62
    7
  6
CONTINUOUS
  0
LAYER
  2
_0-5_
 70
   64
 62
    7
  6
CONTINUOUS
  0
LAYER
  2
_1-5_
 70
   64
 62
    7
  6
CONTINUOUS
  0
LAYER
  2
_1-a_
 70
   64
 62
    7
  6
CONTINUOUS
  0
LAYER
  2
ADD_LINE
 70
   64
 62
    7
  6
CONTINUOUS
  0
ENDTAB
  0
ENDSEC
  0
SECTION
  2
BLOCKS
  0
ENDSEC
  0
SECTION
  2
ENTITIES
  0
LINE
  8
_0-1_
  6
CONTINUOUS
 62
    4
 10
6950.0000000000082
 20
22431.902148963141
 11
9050.0000000000073
 21
22431.902148963141
  0
LINE
  8
_0-1_
  6
CONTINUOUS
 62
    4
 10
6950.0000000000082
 20
22431.902148963141
 11
6950.0000000000082
 21
24531.902148963141
  0
LINE
  8
_0-1_
  6
CONTINUOUS
 62
    4
 10
6950.0000000000082
 20
24531.902148963141
 11
9050.0000000000073
 21
24531.902148963141
  0
LINE
  8
_0-1_
  6
CONTINUOUS
 62
    4
 10
9050.0000000000073
 20
22431.902148963141
 11
9050.0000000000073
 21
24531.902148963141
  0
LINE
  8
_0-1_
  6
CONTINUOUS
 62
    4
 10
9050.0000000000073
 20
24531.902148963141
 11
6950.0000000000082
 21
22431.902148963141
  0
LINE
  8
_0-1_
  6
CONTINUOUS
 62
    4
 10
9050.0000000000073
 20
22431.902148963141
 11
6950.0000000000082
 21
24531.902148963141
  0
ARC
  8
_0-3_
  6
CONTINUOUS
 62
    4
 10
8000.0000000000027
 20
26830.453120990991
 40
1818.4615384615377
 50
8.1712335599498029
 51
171.8287664400502
  0
ARC
  8
_0-3_
  6
CONTINUOUS
 62
    2
 10
8000.0000000000027
 20
26830.453120990991
 40
1518.4615384615377
 50
9.8001899451126029
 51
170.19981005488737
  0
ARC
  8
_0-3_
  6
CONTINUOUS
 62
    2
 10
8000.0000000000027
 20
26830.453120990991
 40
1318.4615384615377
 50
11.305055732548036
 51
168.69494426745197
  0
LINE
  8
_0-3_
  6
CONTINUOUS
 62
    2
 10
6503.6968632917078
 20
27088.914659452537
 11
6707.1200900553631
 21
27088.914659452537
  0
LINE
  8
_0-3_
  6
CONTINUOUS
 62
    2
 10
9292.8799099446405
 20
27088.914659452537
 11
9496.3031367082949
 21
27088.914659452537
  0
LINE
  8
_0-3_
  6
CONTINUOUS
 62
    4
 10
6200.0000000000027
 20
27088.914659452537
 11
6503.6968632917078
 21
27088.914659452537
  0
LINE
  8
_0-3_
  6
CONTINUOUS
 62
    4
 10
9496.3031367082949
 20
27088.914659452537
 11
9800
 21
27088.914659452537
  0
LINE
  8
_0-1_
  6
CONTINUOUS
 62
    4
 10
7550.0000000000027
 20
27129.570161867163
 11
8450.0000000000018
 21
27129.570161867163
  0
LINE
  8
_0-1_
  6
CONTINUOUS
 62
    4
 10
8450.0000000000018
 20
27129.570161867163
 11
8450.0000000000018
 21
28029.570161867163
  0
LINE
  8
_0-1_
  6
CONTINUOUS
 62
    4
 10
8450.0000000000018
 20
28029.570161867163
 11
7550.0000000000027
 21
28029.570161867163
  0
LINE
  8
_0-1_
  6
CONTINUOUS
 62
    4
 10
7550.0000000000027
 20
28029.570161867163
 11
7550.0000000000027
 21
27129.570161867163
  0
LINE
  8
_0-1_
  6
CONTINUOUS
 62
    4
 10
7550.0000000000027
 20
27129.570161867163
 11
8450.0000000000018
 21
28029.570161867163
  0
LINE
  8
_0-4_
  6
CONTINUOUS
 62
    3
 10
7530.0000000000009
 20
27109.570161867156
 11
8470.0000000000018
 21
27109.570161867156
  0
LINE
  8
_0-4_
  6
CONTINUOUS
 62
    3
 10
8470.0000000000018
 20
27109.570161867156
 11
8470.0000000000018
 21
27509.570161867156
  0
LINE
  8
_0-4_
  6
CONTINUOUS
 62
    3
 10
7530.0000000000009
 20
27509.570161867156
 11
7530.0000000000009
 21
27109.570161867156
  0
LINE
  8
_0-1_
  6
CONTINUOUS
 62
    4
 10
7500.0000000000055
 20
24531.902148963141
 11
8000.0000000000027
 21
24756.902148963141
  0
LINE
  8
_0-1_
  6
CONTINUOUS
 62
    4
 10
7700.0000000000027
 20
25608.829197938907
 11
7601.5124774410906
 21
25827.690359180924
  0
LINE
  8
_0-5_
  6
CONTINUOUS
 62
    7
 10
6632.1177422373412
 20
25895.892108926852
 11
8000.0000000000027
 21
26511.439124920042
  0
LINE
  8
_0-5_
  6
CONTINUOUS
 62
    7
 10
7691.770531250816
 20
25977.965044392608
 11
6962.2333271107327
 21
25649.673302529565
  0
LINE
  8
_0-5_
  6
CONTINUOUS
 62
    7
 10
6962.2333271107327
 20
25649.673302529565
 11
6632.1177422373412
 21
25895.892108926852
  0
LINE
  8
_0-5_
  6
CONTINUOUS
 62
    7
 10
6907.2140629651667
 20
25690.709770262445
 11
7667.1486506110878
 21
26032.680334703109
  0
LINE
  8
_0-5_
  6
CONTINUOUS
 62
    7
 10
7691.770531250816
 20
25977.965044392608
 11
7568.6611280521756
 21
26251.541495945145
  0
LINE
  8
_0-5_
  6
CONTINUOUS
 62
    7
 10
7203.8925259821326
 20
26087.395625013625
 11
7484.7643495760676
 21
25950.607399237357
  0
LINE
  8
_0-5_
  6
CONTINUOUS
 62
    7
 10
7021.5082249471125
 20
26005.322689547858
 11
7119.9957475060246
 21
25786.461528305837
  0
LINE
  8
_0-5_
  6
CONTINUOUS
 62
    7
 10
6742.1562705284714
 20
25813.819173461088
 11
7046.1301055868407
 21
25950.607399237357
  0
LINE
  8
_0-5_
  6
CONTINUOUS
 62
    7
 10
7274.1104818806152
 20
26053.198568569554
 11
7593.2830086919039
 21
26196.826205634632
  0
LINE
  8
_0-5_
  6
CONTINUOUS
 62
    7
 10
6797.1755346740365
 20
25772.782705728212
 11
7070.7519862265681
 21
25895.892108926852
  0
LINE
  8
_0-5_
  6
CONTINUOUS
 62
    7
 10
7344.3284377791006
 20
26019.00151212548
 11
7617.9048893316321
 21
26142.110915324127
  0
LINE
  8
_0-5_
  6
CONTINUOUS
 62
    7
 10
6852.1947988196016
 20
25731.746237995332
 11
7095.3738668662963
 21
25841.176818616339
  0
LINE
  8
_0-5_
  6
CONTINUOUS
 62
    7
 10
7414.5463936775823
 20
25984.804455681427
 11
7642.5267699713604
 21
26087.395625013625
  0
LINE
  8
_0-5_
  6
CONTINUOUS
 62
    7
 10
6687.1370063829063
 20
25854.855641193968
 11
8024.621880639731
 21
26456.72383460954
  0
LINE
  8
_0-5_
  6
DASHED1
 62
    4
 10
7144.6176281457529
 20
25731.746237995332
 11
7169.2395087854802
 21
25677.03094768482
  0
LINE
  8
_0-5_
  6
DASHED1
 62
    4
 10
7534.0081108555214
 20
25841.176818616339
 11
7169.2395087854802
 21
25677.03094768482
  0
LINE
  8
_0-5_
  6
DASHED1
 62
    4
 10
7509.3862302157931
 20
25895.892108926841
 11
7534.0081108555214
 21
25841.176818616339
  0
LINE
  8
_0-5_
  6
DASHED1
 62
    4
 10
7508.2150756467572
 20
25829.569952772392
 11
7522.401245011577
 21
25866.96985382511
  0
LINE
  8
_0-5_
  6
DASHED1
 62
    4
 10
7482.4220404379876
 20
25817.963086928445
 11
7510.7943791676353
 21
25892.762889033882
  0
LINE
  8
_0-5_
  6
DASHED1
 62
    4
 10
7456.6290052292234
 20
25806.356221084512
 11
7486.7224149000012
 21
25885.69339203474
  0
LINE
  8
_0-5_
  6
DASHED1
 62
    4
 10
7430.8359700204564
 20
25794.749355240565
 11
7460.9293796912343
 21
25874.086526190804
  0
LINE
  8
_0-5_
  6
DASHED1
 62
    4
 10
7405.0429348116895
 20
25783.142489396618
 11
7435.1363444824674
 21
25862.479660346857
  0
LINE
  8
_0-5_
  6
DASHED1
 62
    4
 10
7379.2498996029253
 20
25771.535623552671
 11
7409.3433092737032
 21
25850.87279450291
  0
LINE
  8
_0-5_
  6
DASHED1
 62
    4
 10
7353.4568643941557
 20
25759.928757708723
 11
7383.5502740649363
 21
25839.265928658962
  0
LINE
  8
_0-5_
  6
DASHED1
 62
    4
 10
7327.6638291853915
 20
25748.321891864794
 11
7357.7572388561694
 21
25827.659062815012
  0
LINE
  8
_0-5_
  6
DASHED1
 62
    4
 10
7301.8707939766246
 20
25736.71502602084
 11
7331.9642036474024
 21
25816.052196971064
  0
LINE
  8
_0-5_
  6
DASHED1
 62
    4
 10
7276.0777587678576
 20
25725.1081601769
 11
7306.1711684386355
 21
25804.445331127125
  0
LINE
  8
_0-5_
  6
DASHED1
 62
    4
 10
7250.2847235590907
 20
25713.501294332953
 11
7280.3781332298713
 21
25792.838465283188
  0
LINE
  8
_0-5_
  6
DASHED1
 62
    4
 10
7224.4916883503238
 20
25701.894428489002
 11
7254.5850980211044
 21
25781.231599439241
  0
LINE
  8
_0-5_
  6
DASHED1
 62
    4
 10
7198.6986531415596
 20
25690.287562645055
 11
7228.7920628123375
 21
25769.624733595294
  0
LINE
  8
_0-5_
  6
DASHED1
 62
    4
 10
7172.9056179327927
 20
25678.680696801108
 11
7202.9990276035705
 21
25758.017867751347
  0
LINE
  8
_0-5_
  6
DASHED1
 62
    4
 10
7159.2823920578239
 20
25699.15787374627
 11
7177.2059923948036
 21
25746.4110019074
  0
LINE
  8
_0-5_
  6
DASHED1
 62
    4
 10
7147.6755262138795
 20
25724.950908955041
 11
7151.4129571860367
 21
25734.804136063452
  0
LINE
  8
_0-4_
  6
CONTINUOUS
 62
    3
 10
7790.1449685717753
 20
25956.438404588655
 11
5966.3019582215638
 21
25135.709049931058
  0
LINE
  8
_0-4_
  6
CONTINUOUS
 62
    3
 10
5966.3019582215638
 20
25135.709049931058
 11
5974.5092517681396
 21
25117.470619827553
  0
LINE
  8
_0-4_
  6
CONTINUOUS
 62
    3
 10
5974.5092517681396
 20
25117.470619827553
 11
6158.1402347867961
 21
25200.104562185952
  0
LINE
  8
_0-1_
  6
CONTINUOUS
 62
    4
 10
2710.8552699843867
 20
23692.689752423787
 11
3148.5775924684363
 21
23889.664797541613
  0
LINE
  8
_0-1_
  6
CONTINUOUS
 62
    4
 10
2951.602547350612
 20
24327.387120025669
 11
2513.8802248665597
 21
24130.412074907843
  0
LINE
  8
_0-1_
  6
CONTINUOUS
 62
    4
 10
2513.8802248665597
 20
24130.412074907843
 11
2710.8552699843867
 21
23692.689752423787
  0
LINE
  8
_0-1_
  6
CONTINUOUS
 62
    4
 10
2710.8552699843867
 20
23692.689752423787
 11
2951.602547350612
 21
24327.387120025669
  0
LINE
  8
_0-1_
  6
CONTINUOUS
 62
    4
 10
2951.602547350612
 20
24327.387120025669
 11
3148.5775924684363
 21
23889.664797541613
  0
LINE
  8
_0-3_
  6
CONTINUOUS
 62
    2
 10
1817.1721949127827
 20
24167.800856620026
 11
1747.2091421382004
 21
24355.164597099501
  0
LINE
  8
_0-3_
  6
CONTINUOUS
 62
    2
 10
3134.552707024352
 20
24651.888282954958
 11
2946.7865741555102
 21
24581.774973786582
  0
LINE
  8
_0-3_
  6
CONTINUOUS
 62
    2
 10
2946.7865741555102
 20
24581.774973786582
 11
2963.2364140937652
 21
24545.219773923789
  0
LINE
  8
_0-3_
  6
CONTINUOUS
 62
    2
 10
1817.1721949127827
 20
24167.800856620026
 11
1831.1648054676994
 21
24130.328108524132
  0
LINE
  8
_0-3_
  6
CONTINUOUS
 62
    2
 10
2018.528545947177
 20
24200.291161298708
 11
1831.1648054676994
 21
24130.328108524132
  0
LINE
  8
_0-3_
  6
CONTINUOUS
 62
    2
 10
2004.5359353922606
 20
24237.763909394605
 11
2018.528545947177
 21
24200.291161298708
  0
LINE
  8
_0-3_
  6
CONTINUOUS
 62
    2
 10
7531.7531004957627
 20
26301.66904509009
 11
2004.5359353922606
 21
24237.763909394605
  0
LINE
  8
_0-3_
  6
CONTINUOUS
 62
    2
 10
3323.4529495157262
 20
24146.006183660371
 11
3134.552707024352
 21
24651.888282954958
  0
LINE
  8
_0-3_
  6
CONTINUOUS
 62
    2
 10
3323.4529495157262
 20
24146.006183660371
 11
3136.0892090362454
 21
24076.043130885781
  0
LINE
  8
_0-3_
  6
CONTINUOUS
 62
    2
 10
3136.0892090362454
 20
24076.043130885781
 11
3031.1446298743758
 21
24357.088741604995
  0
LINE
  8
_0-3_
  6
CONTINUOUS
 62
    2
 10
7274.4263072417025
 20
26419.069732794993
 11
1747.2091421382004
 21
24355.164597099501
  0
LINE
  8
_0-3_
  6
CONTINUOUS
 62
    2
 10
7461.7900477211806
 20
26489.032785569576
 11
7531.7531004957627
 21
26301.66904509009
  0
LINE
  8
_0-3_
  6
CONTINUOUS
 62
    2
 10
7447.797437166264
 20
26526.505533665477
 11
7461.7900477211806
 21
26489.032785569576
  0
LINE
  8
_0-3_
  6
CONTINUOUS
 62
    2
 10
7260.4336966867859
 20
26456.542480890887
 11
7274.4263072417025
 21
26419.069732794993
  0
LINE
  8
_0-3_
  6
CONTINUOUS
 62
    2
 10
7447.797437166264
 20
26526.505533665477
 11
7260.4336966867859
 21
26456.542480890887
  0
LINE
  8
_0-1_
  6
CONTINUOUS
 62
    4
 10
1467.3569310398705
 20
25104.619559017417
 11
1747.2091421382004
 21
24355.164597099501
  0
LINE
  8
_0-1_
  6
CONTINUOUS
 62
    4
 10
7181.9378366228539
 20
27238.487747487496
 11
1467.3569310398705
 21
25104.619559017417
  0
LINE
  8
_0-1_
  6
CONTINUOUS
 62
    4
 10
7181.9378366228539
 20
27238.487747487496
 11
7447.797437166264
 21
26526.505533665477
  0
LINE
  8
_0-4_
  6
CONTINUOUS
 62
    3
 10
8000.0000000000027
 20
26028.941456531902
 11
6995.0625012970331
 21
25576.719582115562
  0
LINE
  8
_0-4_
  6
CONTINUOUS
 62
    4
 10
7940.0000000000009
 20
27109.570161867156
 11
7940.0000000000036
 21
26001.941456531902
  0
LINE
  8
_0-1_
  6
CONTINUOUS
 62
    4
 10
8500.0000000000018
 20
24531.902148963141
 11
8000.0000000000027
 21
24756.902148963141
  0
LINE
  8
_0-1_
  6
CONTINUOUS
 62
    4
 10
8300.0000000000036
 20
25608.829197938907
 11
8398.4875225589167
 21
25827.690359180924
  0
LINE
  8
_0-5_
  6
CONTINUOUS
 62
    7
 10
9367.882257762667
 20
25895.892108926841
 11
8000.0000000000055
 21
26511.439124920042
  0
LINE
  8
_0-5_
  6
CONTINUOUS
 62
    7
 10
8308.2294687491922
 20
25977.965044392608
 11
9037.7666728892764
 21
25649.673302529565
  0
LINE
  8
_0-5_
  6
CONTINUOUS
 62
    7
 10
9037.7666728892764
 20
25649.673302529565
 11
9367.882257762667
 21
25895.892108926841
  0
LINE
  8
_0-5_
  6
CONTINUOUS
 62
    7
 10
9092.7859370348415
 20
25690.709770262445
 11
8332.8513493889204
 21
26032.680334703109
  0
LINE
  8
_0-5_
  6
CONTINUOUS
 62
    7
 10
8308.2294687491922
 20
25977.965044392608
 11
8431.3388719478316
 21
26251.541495945145
  0
LINE
  8
_0-5_
  6
CONTINUOUS
 62
    7
 10
8796.1074740178738
 20
26087.395625013625
 11
8515.2356504239415
 21
25950.607399237357
  0
LINE
  8
_0-5_
  6
CONTINUOUS
 62
    7
 10
8978.4917750528948
 20
26005.322689547858
 11
8880.0042524939836
 21
25786.461528305837
  0
LINE
  8
_0-5_
  6
CONTINUOUS
 62
    7
 10
9257.8437294715368
 20
25813.819173461088
 11
8953.8698944131684
 21
25950.607399237357
  0
LINE
  8
_0-5_
  6
CONTINUOUS
 62
    7
 10
8725.8895181193911
 20
26053.198568569554
 11
8406.7169913081034
 21
26196.826205634632
  0
LINE
  8
_0-5_
  6
CONTINUOUS
 62
    7
 10
9202.8244653259717
 20
25772.782705728212
 11
8929.2480137734401
 21
25895.892108926852
  0
LINE
  8
_0-5_
  6
CONTINUOUS
 62
    7
 10
8655.6715622209067
 20
26019.00151212548
 11
8382.0951106683751
 21
26142.110915324127
  0
LINE
  8
_0-5_
  6
CONTINUOUS
 62
    7
 10
9147.8052011804066
 20
25731.746237995332
 11
8904.6261331337118
 21
25841.176818616339
  0
LINE
  8
_0-5_
  6
CONTINUOUS
 62
    7
 10
8585.4536063224241
 20
25984.804455681427
 11
8357.4732300286469
 21
26087.395625013625
  0
LINE
  8
_0-5_
  6
CONTINUOUS
 62
    7
 10
9312.8629936171001
 20
25854.855641193968
 11
7975.3781193602772
 21
26456.72383460954
  0
LINE
  8
_0-5_
  6
DASHED1
 62
    4
 10
8855.3823718542553
 20
25731.746237995332
 11
8830.7604912145271
 21
25677.03094768482
  0
LINE
  8
_0-5_
  6
DASHED1
 62
    4
 10
8465.9918891444868
 20
25841.176818616339
 11
8830.7604912145271
 21
25677.03094768482
  0
LINE
  8
_0-5_
  6
DASHED1
 62
    4
 10
8490.6137697842132
 20
25895.892108926841
 11
8465.9918891444868
 21
25841.176818616339
  0
LINE
  8
_0-5_
  6
DASHED1
 62
    4
 10
8491.784924353251
 20
25829.569952772392
 11
8477.5987549884303
 21
25866.96985382511
  0
LINE
  8
_0-5_
  6
DASHED1
 62
    4
 10
8517.5779595620188
 20
25817.963086928445
 11
8489.2056208323738
 21
25892.762889033882
  0
LINE
  8
_0-5_
  6
DASHED1
 62
    4
 10
8543.370994770783
 20
25806.356221084512
 11
8513.277585100006
 21
25885.69339203474
  0
LINE
  8
_0-5_
  6
DASHED1
 62
    4
 10
8569.1640299795508
 20
25794.749355240565
 11
8539.070620308772
 21
25874.086526190804
  0
LINE
  8
_0-5_
  6
DASHED1
 62
    4
 10
8594.9570651883187
 20
25783.142489396618
 11
8564.8636555175381
 21
25862.479660346857
  0
LINE
  8
_0-5_
  6
DASHED1
 62
    4
 10
8620.7501003970829
 20
25771.535623552671
 11
8590.6566907263059
 21
25850.87279450291
  0
LINE
  8
_0-5_
  6
DASHED1
 62
    4
 10
8646.5431356058507
 20
25759.928757708723
 11
8616.4497259350719
 21
25839.265928658962
  0
LINE
  8
_0-5_
  6
DASHED1
 62
    4
 10
8672.3361708146167
 20
25748.321891864794
 11
8642.2427611438379
 21
25827.659062815012
  0
LINE
  8
_0-5_
  6
DASHED1
 62
    4
 10
8698.1292060233827
 20
25736.71502602084
 11
8668.0357963526039
 21
25816.052196971064
  0
LINE
  8
_0-5_
  6
DASHED1
 62
    4
 10
8723.9222412321506
 20
25725.1081601769
 11
8693.8288315613718
 21
25804.445331127125
  0
LINE
  8
_0-5_
  6
DASHED1
 62
    4
 10
8749.7152764409166
 20
25713.501294332953
 11
8719.621866770136
 21
25792.838465283188
  0
LINE
  8
_0-5_
  6
DASHED1
 62
    4
 10
8775.5083116496826
 20
25701.894428489002
 11
8745.4149019789038
 21
25781.231599439241
  0
LINE
  8
_0-5_
  6
DASHED1
 62
    4
 10
8801.3013468584486
 20
25690.287562645055
 11
8771.2079371876698
 21
25769.624733595294
  0
LINE
  8
_0-5_
  6
DASHED1
 62
    4
 10
8827.0943820672146
 20
25678.680696801108
 11
8797.0009723964358
 21
25758.017867751347
  0
LINE
  8
_0-5_
  6
DASHED1
 62
    4
 10
8840.7176079421824
 20
25699.15787374627
 11
8822.7940076052037
 21
25746.4110019074
  0
LINE
  8
_0-5_
  6
DASHED1
 62
    4
 10
8852.3244737861278
 20
25724.950908955041
 11
8848.5870428139697
 21
25734.804136063452
  0
LINE
  8
_0-4_
  6
CONTINUOUS
 62
    3
 10
8209.8550314282311
 20
25956.438404588655
 11
10033.698041778443
 21
25135.709049931058
  0
LINE
  8
_0-4_
  6
CONTINUOUS
 62
    3
 10
10033.698041778443
 20
25135.709049931058
 11
10025.490748231869
 21
25117.470619827553
  0
LINE
  8
_0-4_
  6
CONTINUOUS
 62
    3
 10
10025.490748231869
 20
25117.470619827553
 11
9841.8597652132121
 21
25200.104562185952
  0
LINE
  8
_0-1_
  6
CONTINUOUS
 62
    4
 10
13289.144730015621
 20
23692.689752423787
 11
12851.422407531572
 21
23889.664797541613
  0
LINE
  8
_0-1_
  6
CONTINUOUS
 62
    4
 10
13048.397452649391
 20
24327.387120025669
 11
13486.119775133446
 21
24130.412074907843
  0
LINE
  8
_0-1_
  6
CONTINUOUS
 62
    4
 10
13486.119775133446
 20
24130.412074907843
 11
13289.144730015621
 21
23692.689752423787
  0
LINE
  8
_0-1_
  6
CONTINUOUS
 62
    4
 10
13289.144730015621
 20
23692.689752423787
 11
13048.397452649391
 21
24327.387120025669
  0
LINE
  8
_0-1_
  6
CONTINUOUS
 62
    4
 10
13048.397452649391
 20
24327.387120025669
 11
12851.422407531572
 21
23889.664797541613
  0
LINE
  8
_0-3_
  6
CONTINUOUS
 62
    2
 10
14182.827805087225
 20
24167.800856620026
 11
14252.790857861804
 21
24355.164597099501
  0
LINE
  8
_0-3_
  6
CONTINUOUS
 62
    2
 10
12865.447292975654
 20
24651.888282954958
 11
13053.213425844495
 21
24581.774973786582
  0
LINE
  8
_0-3_
  6
CONTINUOUS
 62
    2
 10
13053.213425844495
 20
24581.774973786582
 11
13036.763585906243
 21
24545.219773923789
  0
LINE
  8
_0-3_
  6
CONTINUOUS
 62
    2
 10
14182.827805087225
 20
24167.800856620026
 11
14168.835194532312
 21
24130.328108524132
  0
LINE
  8
_0-3_
  6
CONTINUOUS
 62
    2
 10
13981.471454052831
 20
24200.291161298708
 11
14168.835194532312
 21
24130.328108524132
  0
LINE
  8
_0-3_
  6
CONTINUOUS
 62
    2
 10
13995.464064607748
 20
24237.763909394605
 11
13981.471454052831
 21
24200.291161298708
  0
LINE
  8
_0-3_
  6
CONTINUOUS
 62
    2
 10
8468.2468995042454
 20
26301.669045090108
 11
13995.464064607748
 21
24237.763909394605
  0
LINE
  8
_0-3_
  6
CONTINUOUS
 62
    2
 10
12676.547050484283
 20
24146.006183660371
 11
12865.447292975654
 21
24651.888282954958
  0
LINE
  8
_0-3_
  6
CONTINUOUS
 62
    2
 10
12676.547050484283
 20
24146.006183660371
 11
12863.910790963761
 21
24076.043130885781
  0
LINE
  8
_0-3_
  6
CONTINUOUS
 62
    2
 10
12863.910790963761
 20
24076.043130885781
 11
12968.855370125635
 21
24357.088741604995
  0
LINE
  8
_0-3_
  6
CONTINUOUS
 62
    2
 10
8725.5736927583057
 20
26419.069732794993
 11
14252.790857861804
 21
24355.164597099501
  0
LINE
  8
_0-3_
  6
CONTINUOUS
 62
    2
 10
8538.2099522788267
 20
26489.032785569576
 11
8468.2468995042454
 21
26301.669045090108
  0
LINE
  8
_0-3_
  6
CONTINUOUS
 62
    2
 10
8552.2025628337433
 20
26526.505533665477
 11
8538.2099522788267
 21
26489.032785569576
  0
LINE
  8
_0-3_
  6
CONTINUOUS
 62
    2
 10
8739.5663033132223
 20
26456.542480890887
 11
8725.5736927583057
 21
26419.069732794993
  0
LINE
  8
_0-3_
  6
CONTINUOUS
 62
    2
 10
8552.2025628337433
 20
26526.505533665477
 11
8739.5663033132223
 21
26456.542480890887
  0
LINE
  8
_0-1_
  6
CONTINUOUS
 62
    4
 10
14532.643068960135
 20
25104.619559017417
 11
14252.790857861804
 21
24355.164597099501
  0
LINE
  8
_0-1_
  6
CONTINUOUS
 62
    4
 10
8818.0621633771552
 20
27238.487747487496
 11
14532.643068960135
 21
25104.619559017417
  0
LINE
  8
_0-1_
  6
CONTINUOUS
 62
    4
 10
8818.0621633771552
 20
27238.487747487496
 11
8552.2025628337433
 21
26526.505533665477
  0
LINE
  8
_0-4_
  6
CONTINUOUS
 62
    3
 10
8000.0000000000027
 20
26028.941456531902
 11
9004.9374987029732
 21
25576.719582115562
  0
LINE
  8
_0-4_
  6
CONTINUOUS
 62
    4
 10
8060.0000000000055
 20
27109.570161867156
 11
8060.0000000000018
 21
26001.941456531902
  0
LINE
  8
_0-4_
  6
CONTINUOUS
 62
    3
 10
7919.9999999999991
 20
28648.914659452537
 11
8080.0000000000009
 21
28648.914659452537
  0
ARC
  8
_0-4_
  6
CONTINUOUS
 62
    3
 10
8000
 20
28650.043126211996
 40
80.007958586800825
 50
359.19184881468448
 51
180.8081511853155
  0
LINE
  8
_0-0_
  6
CENTER1
 62
    4
 10
8000
 20
29700
 11
8000.0000000000082
 21
19700
  0
LINE
  8
_0-4_
  6
CONTINUOUS
 62
    3
 10
8000
 20
27448.914659452537
 11
7970.0000000000018
 21
27574.217392848135
  0
LINE
  8
_0-4_
  6
CONTINUOUS
 62
    3
 10
7969.9999999999991
 20
27574.217392848135
 11
7969.9999999999991
 21
28648.914659452537
  0
LINE
  8
_0-4_
  6
CONTINUOUS
 62
    3
 10
8000
 20
27448.914659452537
 11
8030.0000000000009
 21
27574.217392848135
  0
LINE
  8
_0-4_
  6
CONTINUOUS
 62
    3
 10
8030.0000000000036
 20
27574.217392848135
 11
8030.0000000000009
 21
28648.914659452537
  0
LINE
  8
_0-4_
  6
CONTINUOUS
 62
    3
 10
0
 20
29700
 11
0
 21
19700
  0
LINE
  8
_0-4_
  6
CONTINUOUS
 62
    3
 10
0
 20
19700
 11
16000
 21
19700
  0
LINE
  8
_0-1_
  6
CONTINUOUS
 62
    4
 10
9050
 20
24284.402148963141
 11
16000
 21
21156.902148963141
  0
LINE
  8
_0-1_
  6
CONTINUOUS
 62
    4
 10
8398.4875225589167
 20
25827.690359180924
 11
16000
 21
22407.009744332434
  0
LINE
  8
_0-1_
  6
CONTINUOUS
 62
    4
 10
8000.0000000000027
 20
25743.829197938903
 11
16000
 21
22143.829197938903
  0
LINE
  8
_0-3_
  6
CONTINUOUS
 62
    2
 10
13036.763585906243
 20
24545.219773923789
 11
16000
 21
23438.724647960436
  0
LINE
  8
_0-3_
  6
CONTINUOUS
 62
    2
 10
12968.855370125635
 20
24357.088741604995
 11
16000
 21
23225.236168825475
  0
LINE
  8
_0-1_
  6
CONTINUOUS
 62
    4
 10
14446.120581253177
 20
24872.909016245685
 11
16000
 21
24292.678564500253
  0
LINE
  8
_0-1_
  6
CONTINUOUS
 62
    4
 10
6950.0000000000082
 20
24284.402148963141
 11
0
 21
21156.902148963141
  0
LINE
  8
_0-1_
  6
CONTINUOUS
 62
    4
 10
7601.5124774410906
 20
25827.690359180924
 11
0
 21
22407.009744332434
  0
LINE
  8
_0-1_
  6
CONTINUOUS
 62
    4
 10
8000.0000000000027
 20
25743.829197938903
 11
0
 21
22143.829197938903
  0
LINE
  8
_0-3_
  6
CONTINUOUS
 62
    2
 10
2963.2364140937652
 20
24545.219773923789
 11
0
 21
23438.724647960436
  0
LINE
  8
_0-3_
  6
CONTINUOUS
 62
    2
 10
3031.1446298743758
 20
24357.088741604995
 11
0
 21
23225.236168825475
  0
LINE
  8
_0-1_
  6
CONTINUOUS
 62
    4
 10
1553.8794187468311
 20
24872.909016245685
 11
0
 21
24292.678564500253
  0
LINE
  8
_0-4_
  6
CONTINUOUS
 62
    3
 10
0
 20
29700
 11
16000
 21
29700
  0
LINE
  8
_0-4_
  6
CONTINUOUS
 62
    3
 10
16000
 20
29700
 11
16000
 21
19700
  0
LINE
  8
_0-4_
  6
CONTINUOUS
 62
    3
 10
0
 20
19700
 11
8000
 21
19700
  0
LINE
  8
_0-4_
  6
CONTINUOUS
 62
    3
 10
0
 20
29700
 11
8000
 21
29700
  0
LINE
  8
_0-4_
  6
CONTINUOUS
 62
    3
 10
0
 20
29700
 11
8000
 21
29700
  0
LINE
  8
_0-4_
  6
CONTINUOUS
 62
    3
 10
0
 20
29700
 11
8000
 21
29700
  0
LINE
  8
_0-4_
  6
CONTINUOUS
 62
    3
 10
0
 20
29400
 11
8000
 21
29400
  0
LINE
  8
_0-4_
  6
CONTINUOUS
 62
    3
 10
2000
 20
29700
 11
2000
 21
29400
  0
LINE
  8
_0-4_
  6
CONTINUOUS
 62
    3
 10
4000
 20
29700
 11
4000
 21
29400
  0
LINE
  8
_0-4_
  6
CONTINUOUS
 62
    3
 10
8000
 20
29400
 11
8000
 21
29700
  0
TEXT
  8
_0-1_
 62
    4
 10
357.36024140035454
 20
29450
 40
200
 41
1
 50
0
  1
ルーフドライ
  0
LINE
  8
_0-4_
  6
CONTINUOUS
 62
    3
 10
0
 20
19700
 11
8000
 21
19700
  0
LINE
  8
_0-4_
  6
CONTINUOUS
 62
    3
 10
0
 20
19700
 11
8000
 21
19700
  0
LINE
  8
_0-4_
  6
CONTINUOUS
 62
    3
 10
0
 20
19700
 11
8000
 21
19700
  0
TEXT
  8
_0-1_
 62
    4
 10
7233.8546117923979
 20
29450
 40
200
 41
1
 50
0
  1
S=1/5
  0
LINE
  8
_0-4_
  6
CONTINUOUS
 62
    3
 10
7790.1449685717753
 20
25956.438404588655
 11
7765.523087932047
 21
26011.15369489916
  0
LINE
  8
_0-4_
  6
CONTINUOUS
 62
    3
 10
8209.8550314282311
 20
25956.438404588655
 11
8234.4769120679593
 21
26011.15369489916
  0
TEXT
  8
_0-1_
 62
    4
 10
2457.3602414003544
 20
29450
 40
200
 41
1
 50
0
  1
標準納まり
  0
LINE
  8
_1-a_
  6
CONTINUOUS
 62
    7
 10
7700.0000000000082
 20
25208.829197938903
 11
7700.0000000000082
 21
25408.829197938903
  0
LINE
  8
_1-a_
  6
CONTINUOUS
 62
    7
 10
8299.9999999999927
 20
25208.829197938903
 11
8299.9999999999927
 21
25408.829197938903
  0
CIRCLE
  8
_1-a_
  6
CONTINUOUS
 62
    5
 10
7700.0000000000082
 20
25208.829197938903
 40
20
  0
CIRCLE
  8
_1-a_
  6
CONTINUOUS
 62
    5
 10
7700.0000000000082
 20
25208.829197938903
 40
20
  0
CIRCLE
  8
_1-a_
  6
CONTINUOUS
 62
    5
 10
8299.9999999999927
 20
25208.829197938903
 40
20
  0
CIRCLE
  8
_1-a_
  6
CONTINUOUS
 62
    5
 10
8299.9999999999927
 20
25208.829197938903
 40
20
  0
LINE
  8
_1-5_
  6
CONTINUOUS
 62
    7
 10
8796.1074740178738
 20
26087.395625013625
 11
10018.474150835969
 21
28204.596814741682
  0
LINE
  8
_1-5_
  6
CONTINUOUS
 62
    7
 10
10018.474150835969
 20
28204.596814741682
 11
10218.474150835969
 21
28204.596814741682
  0
SOLID
  8
_1-5_
  6
CONTINUOUS
 62
    7
 10
8796.1074740178738
 20
26087.395625013625
 11
8826.9081530446529
 21
26185.082898524219
 12
8846.1074740178738
 22
26173.998165392073
 13
8846.1074740178738
 23
26173.998165392073
  0
LINE
  8
_1-5_
  6
CONTINUOUS
 62
    7
 10
8796.1074740178738
 20
26087.395625013625
 11
8826.9081530446529
 21
26185.082898524219
  0
LINE
  8
_1-5_
  6
CONTINUOUS
 62
    7
 10
8826.9081530446529
 20
26185.082898524219
 11
8846.1074740178738
 21
26173.998165392073
  0
LINE
  8
_1-5_
  6
CONTINUOUS
 62
    7
 10
8846.1074740178738
 20
26173.998165392073
 11
8796.1074740178738
 21
26087.395625013625
  0
TEXT
  8
_1-5_
 62
    5
 10
10218.474150835969
 20
28104.596814741682
 40
200
 41
1
 50
0
  1
ルーフドライ
  0
LINE
  8
_1-5_
  6
CONTINUOUS
 62
    7
 10
9641.2167972357274
 20
25312.325609975283
 11
10793.482273496627
 21
27308.107958666704
  0
LINE
  8
_1-5_
  6
CONTINUOUS
 62
    7
 10
10793.482273496627
 20
27308.107958666704
 11
10993.482273496627
 21
27308.107958666704
  0
SOLID
  8
_1-5_
  6
CONTINUOUS
 62
    7
 10
9641.2167972357274
 20
25312.325609975283
 11
9672.0174762625065
 21
25410.012883485877
 12
9691.2167972357292
 22
25398.928150353724
 13
9691.2167972357292
 23
25398.928150353724
  0
LINE
  8
_1-5_
  6
CONTINUOUS
 62
    7
 10
9641.2167972357274
 20
25312.325609975283
 11
9672.0174762625065
 21
25410.012883485877
  0
LINE
  8
_1-5_
  6
CONTINUOUS
 62
    7
 10
9672.0174762625065
 20
25410.012883485877
 11
9691.2167972357292
 21
25398.928150353724
  0
LINE
  8
_1-5_
  6
CONTINUOUS
 62
    7
 10
9691.2167972357292
 20
25398.928150353724
 11
9641.2167972357274
 21
25312.325609975283
  0
TEXT
  8
_1-5_
 62
    5
 10
10993.482273496627
 20
27208.107958666704
 40
200
 41
1
 50
0
  1
水返し板金
  0
LINE
  8
_1-a_
  6
CONTINUOUS
 62
    7
 10
7700.0000000000082
 20
25208.829197938903
 11
8299.9999999999927
 21
25208.829197938903
  0
TEXT
  8
_1-a_
 62
    5
 10
7720.0000000000073
 20
25208.829197938903
 40
200
 41
1
 50
0
  1
30程度
  0
ENDSEC
  0
EOF
