  0
SECTION
  2
HEADER
  9
$ACADVER
  1
AC1009
  9
$INSBASE
 10
0
 20
0
 30
0
  9
$EXTMIN
 10
0
 20
0
  9
$EXTMAX
 10
42000
 20
29700
  9
$LIMMIN
 10
0
 20
0
  9
$LIMMAX
 10
42000
 20
29700
  9
$LTSCALE
 40
100
  0
ENDSEC
  0
SECTION
  2
TABLES
  0
TABLE
  2
LTYPE
 70
     9
  0
LTYPE
  2
CONTINUOUS
 70
    64
  3
実線
 72
    65
 73
     0
 40
0.0
  0
LTYPE
  2
DASHED1
 70
    64
  3
--  --  --  --  --  --  --  --  
 72
    65
 73
     2
 40
2.5
 49
1.25
 49
-1.25
  0
LTYPE
  2
DASHED2
 70
    64
  3
----    ----    ----    ----    
 72
    65
 73
     2
 40
5.0
 49
2.5
 49
-2.5
  0
LTYPE
  2
DASHED3
 70
    64
  3
------  ------  ------  ------  
 72
    65
 73
     2
 40
5.0
 49
3.75
 49
-1.25
  0
LTYPE
  2
CENTER1
 70
    64
  3
----- - ----- - ----- - ----- - 
 72
    65
 73
     4
 40
10.0
 49
6.25
 49
-1.25
 49
1.25
 49
-1.25
  0
LTYPE
  2
CENTER2
 70
    64
  3
----------  --  ----------  --  
 72
    65
 73
     4
 40
20.0
 49
12.5
 49
-2.5
 49
2.5
 49
-2.5
  0
LTYPE
  2
PHANTOM1
 70
    64
  3
--- - - --- - - --- - - --- - - 
 72
    65
 73
     6
 40
10.0
 49
3.25
 49
-1.25
 49
1.25
 49
-1.25
 49
1.25
 49
-1.25
  0
LTYPE
  2
PHANTOM2
 70
    64
  3
--------  -  -  --------  -  -  
 72
    65
 73
     6
 40
20.0
 49
10.0
 49
-2.5
 49
1.25
 49
-2.5
 49
1.25
 49
-2.5
  0
LTYPE
  2
DOT
 70
    64
  3
-   -   -   -   -   -   -   -   
 72
    65
 73
     2
 40
2.5
 49
0.625
 49
-1.875
  0
LTYPE
  2
DUMMY
 70
    64
  3
ダミー
 72
    65
 73
     0
 40
0.0
  0
LTYPE
  2
RAND1
 70
    64
  3
ランダム線1
 72
    65
 73
     4
 40
10.0
 49
1.0
 49
-2.0
 49
3.0
 49
-4.0
  0
LTYPE
  2
RAND2
 70
    64
  3
ランダム線2
 72
    65
 73
     4
 40
14.0
 49
2.0
 49
-3.0
 49
4.0
 49
-5.0
  0
LTYPE
  2
RAND3
 70
    64
  3
ランダム線3
 72
    65
 73
     4
 40
18.0
 49
3.0
 49
-4.0
 49
5.0
 49
-6.0
  0
LTYPE
  2
RAND4
 70
    64
  3
ランダム線4
 72
    65
 73
     4
 40
22.0
 49
4.0
 49
-5.0
 49
6.0
 49
-7.0
  0
LTYPE
  2
RAND5
 70
    64
  3
ランダム線5
 72
    65
 73
     4
 40
26.0
 49
5.0
 49
-6.0
 49
7.0
 49
-8.0
  0
LTYPE
  2
LONG1
 70
    64
  3
----------  --  ----------  --  
 72
    65
 73
     4
 40
40.0
 49
32.5
 49
-2.5
 49
2.5
 49
-2.5
  0
LTYPE
  2
LONG2
 70
    64
  3
--------  -  -  --------  -  -  
 72
    65
 73
     6
 40
40.0
 49
30.0
 49
-2.5
 49
1.25
 49
-2.5
 49
1.25
 49
-2.5
  0
LTYPE
  2
LONG3
 70
    64
  3
+++++++++++++++..+++++++++++++++
 72
    65
 73
     2
 40
40.0
 49
37.5
 49
-2.5
  0
LTYPE
  2
LONG4
 70
    64
  3
+++++++++++++++..+++++++++++++++
 72
    65
 73
     2
 40
80.0
 49
75.0
 49
-5.0
  0
LTYPE
  2
LONG5
 70
    64
  3
----------  --  ----------  --  
 72
    65
 73
     4
 40
60.0
 49
37.5
 49
-7.5
 49
7.5
 49
-7.5
  0
LTYPE
  2
dashed
 70
   64
  3
-------   -------------   ------
 72
   65
 73
    2
 40
7.5
 49
6
 49
-1.5
  0
LTYPE
  2
dashed_spaced
 70
   64
  3
----        --------        ----
 72
   65
 73
    2
 40
12
 49
6
 49
-6
  0
LTYPE
  2
long_dashed_dotted
 70
   64
  3
------------- --- --------------
 72
   65
 73
    4
 40
15.25
 49
12
 49
-1.5
 49
0.25
 49
-1.5
  0
LTYPE
  2
long_dashed_double-dotted
 70
   64
  3
----------- --- --- ------------
 72
   65
 73
    6
 40
17
 49
12
 49
-1.5
 49
0.25
 49
-1.5
 49
0.25
 49
-1.5
  0
LTYPE
  2
long_dashed_triplicate-dotted
 70
   64
  3
--------- --- --- --- ----------
 72
   65
 73
    8
 40
18.75
 49
12
 49
-1.5
 49
0.25
 49
-1.5
 49
0.25
 49
-1.5
 49
0.25
 49
-1.5
  0
LTYPE
  2
dotted
 70
   64
  3
   -       -       -       -    
 72
   65
 73
    2
 40
1.75
 49
0.25
 49
-1.5
  0
LTYPE
  2
chain
 70
   64
  3
-------------- -- --------------
 72
   65
 73
    4
 40
18.5
 49
12
 49
-1.5
 49
3.5
 49
-1.5
  0
LTYPE
  2
chain_double_dash
 70
   64
  3
------------ -- -- -------------
 72
   65
 73
    6
 40
23.5
 49
12
 49
-1.5
 49
3.5
 49
-1.5
 49
3.5
 49
-1.5
  0
LTYPE
  2
dashed_dotted
 70
   64
  3
-----------     -     ----------
 72
   65
 73
    4
 40
9.25
 49
6
 49
-1.5
 49
0.25
 49
-1.5
  0
LTYPE
  2
double-dashed_dotted
 70
   64
  3
------   -----------   -   -----
 72
   65
 73
    6
 40
16.75
 49
6
 49
-1.5
 49
6
 49
-1.5
 49
0.25
 49
-1.5
  0
LTYPE
  2
dashed_double-dotted
 70
   64
  3
---------    -    -    ---------
 72
   65
 73
    6
 40
11
 49
6
 49
-1.5
 49
0.25
 49
-1.5
 49
0.25
 49
-1.5
  0
LTYPE
  2
double-dashed_double-dotted
 70
   64
  3
-----   ---------   -   -   ----
 72
   65
 73
    8
 40
18.5
 49
6
 49
-1.5
 49
6
 49
-1.5
 49
0.25
 49
-1.5
 49
0.25
 49
-1.5
  0
LTYPE
  2
dashed_triplicate-dotted
 70
   64
  3
-------    -    -    -    ------
 72
   65
 73
    8
 40
12.75
 49
6
 49
-1.5
 49
0.25
 49
-1.5
 49
0.25
 49
-1.5
 49
0.25
 49
-1.5
  0
LTYPE
  2
double-dashed_triplicate-dotted
 70
   64
  3
-----  ---------  -  -  -  -----
 72
   65
 73
   10
 40
20.25
 49
6
 49
-1.5
 49
6
 49
-1.5
 49
0.25
 49
-1.5
 49
0.25
 49
-1.5
 49
0.25
 49
-1.5
  0
LTYPE
  2
undefined
 70
   64
  3
--------------------------------
 72
   65
 73
    0
 40
0
  0
ENDTAB
  0
TABLE
  2
STYLE
  5
3
100
AcDbSymbolTable
 70
     1
  0
STYLE
  5
10
100
AcDbSymbolTableRecord
100
AcDbTextStyleTableRecord
  2
STANDARD
 70
     0
 40
0.0
 41
1.0
 50
0.0
 71
     0
 42
0.2
  3
txt
  4
bigfont.shx
  0
STYLE
  5
26
100
AcDbSymbolTableRecord
100
AcDbTextStyleTableRecord
  2
TATEGAKI
 70
    68
 40
0.0
 41
1.0
 50
0.0
 71
     0
 42
1.0
  3
txt
  4
bigfont.shx
  0
ENDTAB
  0
TABLE
  2
LAYER
 70
    8
  0
LAYER
  2
_0-0_
 70
   64
 62
    7
  6
CONTINUOUS
  0
LAYER
  2
_0-1_
 70
   64
 62
    7
  6
CONTINUOUS
  0
LAYER
  2
_0-2_
 70
   64
 62
    7
  6
CONTINUOUS
  0
LAYER
  2
_0-3_
 70
   64
 62
    7
  6
CONTINUOUS
  0
LAYER
  2
_0-4_
 70
   64
 62
    7
  6
CONTINUOUS
  0
LAYER
  2
_0-5_
 70
   64
 62
    7
  6
CONTINUOUS
  0
LAYER
  2
_1-5_
 70
   64
 62
    7
  6
CONTINUOUS
  0
LAYER
  2
ADD_LINE
 70
   64
 62
    7
  6
CONTINUOUS
  0
ENDTAB
  0
ENDSEC
  0
SECTION
  2
BLOCKS
  0
ENDSEC
  0
SECTION
  2
ENTITIES
  0
LINE
  8
_0-4_
  6
CONTINUOUS
 62
    3
 10
0
 20
29700
 11
8000
 21
29700
  0
LINE
  8
_0-4_
  6
CONTINUOUS
 62
    3
 10
16000
 20
29700
 11
24000
 21
29700
  0
LINE
  8
_0-1_
  6
CONTINUOUS
 62
    4
 10
3969.6849575981901
 20
19700
 11
3969.6849575981901
 21
26235.47142744916
  0
LINE
  8
_0-1_
  6
CONTINUOUS
 62
    4
 10
6069.6849575981933
 20
19700
 11
6069.6849575981933
 21
26235.47142744916
  0
LINE
  8
_0-1_
  6
CONTINUOUS
 62
    4
 10
6069.6849575981933
 20
25635.47142744916
 11
3969.6849575981901
 21
25635.47142744916
  0
LINE
  8
_0-1_
  6
CONTINUOUS
 62
    4
 10
3969.6849575981901
 20
25635.47142744916
 11
6069.6849575981933
 21
26235.47142744916
  0
LINE
  8
_0-3_
  6
CONTINUOUS
 62
    2
 10
2589.6849575981919
 20
26235.47142744916
 11
2909.6849575981905
 21
26235.47142744916
  0
LINE
  8
_0-1_
  6
CONTINUOUS
 62
    4
 10
2589.6849575981919
 20
26475.471427449156
 11
2589.6849575981919
 21
26235.47142744916
  0
LINE
  8
_0-1_
  6
CONTINUOUS
 62
    4
 10
2589.6849575981919
 20
26235.47142744916
 11
6069.6849575981933
 21
26235.47142744916
  0
LINE
  8
_0-1_
  6
CONTINUOUS
 62
    4
 10
2589.6849575981919
 20
26475.471427449156
 11
6069.6849575981933
 21
26475.471427449156
  0
ARC
  8
_0-4_
  6
CONTINUOUS
 62
    3
 10
2689.6849575981919
 20
26575.471427449156
 40
200
 50
90
 51
180
  0
LINE
  8
_0-4_
  6
CONTINUOUS
 62
    3
 10
3949.6849575981914
 20
26875.471427449156
 11
2689.6849575981919
 21
26775.471427449156
  0
LINE
  8
_0-4_
  6
CONTINUOUS
 62
    3
 10
5009.6849575981933
 20
26875.471427449156
 11
3949.6849575981914
 21
26875.471427449156
  0
LINE
  8
_0-4_
  6
CONTINUOUS
 62
    3
 10
2489.6849575981919
 20
25875.471427449156
 11
2489.6849575981919
 21
26575.471427449156
  0
LINE
  8
_0-1_
  6
CONTINUOUS
 62
    4
 10
6489.6849575981914
 20
19700
 11
6489.6849575981914
 21
26235.47142744916
  0
LINE
  8
_0-1_
  6
CONTINUOUS
 62
    4
 10
6069.6849575981933
 20
26235.47142744916
 11
6489.6849575981914
 21
26235.47142744916
  0
LINE
  8
_0-1_
  6
CONTINUOUS
 62
    4
 10
6069.6849575981933
 20
26475.471427449156
 11
6489.6849575981914
 21
26475.471427449156
  0
LINE
  8
_0-1_
  6
CONTINUOUS
 62
    4
 10
6489.6849575981914
 20
26475.471427449156
 11
6489.6849575981914
 21
26235.47142744916
  0
LINE
  8
_0-3_
  6
CONTINUOUS
 62
    2
 10
6549.6849575981914
 20
19700
 11
6549.6849575981914
 21
26535.47142744916
  0
LINE
  8
_0-3_
  6
CONTINUOUS
 62
    2
 10
6549.6849575981914
 20
26535.47142744916
 11
3949.6849575981914
 21
26535.47142744916
  0
ARC
  8
_0-4_
  6
CONTINUOUS
 62
    3
 10
6449.6849575981914
 20
26575.471427449156
 40
200
 50
0
 51
90
  0
LINE
  8
_0-4_
  6
CONTINUOUS
 62
    3
 10
5009.6849575981933
 20
26875.471427449156
 11
6449.6849575981914
 21
26775.471427449156
  0
LINE
  8
_0-4_
  6
CONTINUOUS
 62
    3
 10
6649.6849575981914
 20
25875.471427449167
 11
6649.6849575981914
 21
26575.471427449156
  0
LINE
  8
_0-1_
  6
CONTINUOUS
 62
    4
 10
6249.6849575981914
 20
19700
 11
6249.6849575981914
 21
26235.47142744916
  0
LINE
  8
_0-2_
  6
DASHED1
 62
    7
 10
3949.6849575981914
 20
19700
 11
3949.6849575981914
 21
26235.47142744916
  0
LINE
  8
_0-3_
  6
CONTINUOUS
 62
    2
 10
3949.6849575981914
 20
26535.47142744916
 11
3949.6849575981914
 21
26475.471427449156
  0
LINE
  8
_0-4_
  6
CONTINUOUS
 62
    3
 10
0
 20
19700
 11
0
 21
29700
  0
LINE
  8
_0-0_
  6
CENTER1
 62
    4
 10
5019.6849575981933
 20
29700
 11
5019.6849575981933
 21
19700
  0
LINE
  8
_0-1_
  6
CONTINUOUS
 62
    4
 10
3589.6849575981919
 20
19700
 11
3589.6849575981919
 21
25935.47142744916
  0
LINE
  8
_0-1_
  6
CONTINUOUS
 62
    4
 10
3269.6849575981901
 20
25935.47142744916
 11
3589.6849575981919
 21
25935.47142744916
  0
LINE
  8
_0-4_
  6
CONTINUOUS
 62
    3
 10
24000
 20
19700
 11
24000
 21
29700
  0
LINE
  8
_0-1_
  6
CONTINUOUS
 62
    4
 10
18842.802420308253
 20
22761.351480622136
 11
20942.802420308253
 21
22761.351480622136
  0
LINE
  8
_0-1_
  6
CONTINUOUS
 62
    4
 10
20942.802420308253
 20
24861.351480622136
 11
18842.802420308253
 21
24861.351480622136
  0
LINE
  8
_0-1_
  6
CONTINUOUS
 62
    4
 10
18842.802420308253
 20
22761.351480622136
 11
20942.802420308253
 21
24861.351480622136
  0
LINE
  8
_0-1_
  6
CONTINUOUS
 62
    4
 10
20942.802420308253
 20
22761.351480622136
 11
18842.802420308253
 21
24861.351480622136
  0
LINE
  8
_0-1_
  6
CONTINUOUS
 62
    4
 10
21982.802420308253
 20
26866.681145906339
 11
22462.802420308253
 21
26866.681145906339
  0
LINE
  8
_0-1_
  6
CONTINUOUS
 62
    4
 10
19392.802420308257
 20
24861.351480622136
 11
21982.802420308253
 21
25897.351480622136
  0
LINE
  8
_0-1_
  6
CONTINUOUS
 62
    4
 10
22462.802420308253
 20
26517.169056648781
 11
23062.802420308253
 21
26517.169056648781
  0
LINE
  8
_0-1_
  6
CONTINUOUS
 62
    4
 10
23062.802420308253
 20
26517.169056648781
 11
23062.802420308253
 21
27317.169056648781
  0
LINE
  8
_0-1_
  6
CONTINUOUS
 62
    4
 10
23062.802420308253
 20
27317.169056648781
 11
22462.802420308253
 21
27317.169056648781
  0
LINE
  8
_0-1_
  6
CONTINUOUS
 62
    4
 10
22462.802420308253
 20
27317.169056648781
 11
22462.802420308253
 21
26517.169056648781
  0
LINE
  8
_0-1_
  6
CONTINUOUS
 62
    4
 10
22462.802420308253
 20
26517.169056648781
 11
23062.802420308253
 21
27317.169056648781
  0
LINE
  8
_0-2_
  6
DASHED1
 62
    7
 10
23062.802420308253
 20
27337.169056648781
 11
22462.802420308253
 21
27337.169056648781
  0
LINE
  8
_0-1_
  6
CONTINUOUS
 62
    4
 10
22462.802420308253
 20
27058.681145906336
 11
22373.668657983271
 21
27281.515551718796
  0
LINE
  8
_0-4_
  6
CONTINUOUS
 62
    3
 10
23082.802420308253
 20
26477.169056648778
 11
23082.802420308253
 21
27357.169056648781
  0
LINE
  8
_0-4_
  6
CONTINUOUS
 62
    3
 10
23082.802420308253
 20
27357.169056648781
 11
22455.099124165517
 21
27357.169056648781
  0
LINE
  8
_0-4_
  6
CONTINUOUS
 62
    3
 10
23082.802420308253
 20
26477.169056648778
 11
23082.802420308253
 21
26377.169056648778
  0
LINE
  8
_0-4_
  6
CONTINUOUS
 62
    3
 10
23082.802420308253
 20
26377.169056648778
 11
23062.802420308253
 21
26377.169056648778
  0
LINE
  8
_0-4_
  6
CONTINUOUS
 62
    3
 10
22482.802420308253
 20
26497.169056648785
 11
23062.802420308253
 21
26497.169056648785
  0
LINE
  8
_0-4_
  6
CONTINUOUS
 62
    3
 10
23062.802420308253
 20
26377.169056648778
 11
23062.802420308253
 21
26497.169056648785
  0
LINE
  8
_0-4_
  6
CONTINUOUS
 62
    3
 10
23062.802420308253
 20
26477.169056648778
 11
22482.802420308253
 21
26477.169056648778
  0
LINE
  8
_0-1_
  6
CONTINUOUS
 62
    4
 10
18842.802420308253
 20
24641.351480622136
 11
16000
 21
23504.230512498834
  0
LINE
  8
_0-2_
  6
DASHED1
 62
    7
 10
22462.802420308253
 20
27338.709715877332
 11
16000
 21
24753.588747754045
  0
LINE
  8
_0-2_
  6
DASHED1
 62
    7
 10
22462.802420308253
 20
27338.709715877336
 11
16000
 21
24753.588747754031
  0
LINE
  8
_0-1_
  6
CONTINUOUS
 62
    4
 10
22462.802420308253
 20
27058.681145906336
 11
16000
 21
24473.560177783045
  0
LINE
  8
_0-1_
  6
CONTINUOUS
 62
    4
 10
22462.802420308253
 20
27317.169056648789
 11
16000
 21
24732.048088525495
  0
LINE
  8
_0-4_
  6
CONTINUOUS
 62
    3
 10
22455.099124165517
 20
27357.169056648781
 11
16000
 21
24775.129406982567
  0
LINE
  8
_0-1_
  6
CONTINUOUS
 62
    4
 10
20942.802420308253
 20
24861.351480622136
 11
20942.802420308253
 21
19700
  0
LINE
  8
_0-1_
  6
CONTINUOUS
 62
    4
 10
18842.802420308253
 20
24861.351480622136
 11
18842.802420308253
 21
19700
  0
LINE
  8
_0-2_
  6
DASHED1
 62
    7
 10
20962.802420308253
 20
24861.351480622136
 11
20962.802420308253
 21
19700
  0
LINE
  8
_0-0_
  6
CENTER1
 62
    4
 10
19892.802420308253
 20
29700
 11
19892.802420308253
 21
19700
  0
LINE
  8
_0-3_
  6
CONTINUOUS
 62
    2
 10
2909.6849575981905
 20
26235.47142744916
 11
2909.6849575981933
 21
25135.471427449156
  0
LINE
  8
_0-3_
  6
CONTINUOUS
 62
    2
 10
2589.6849575981946
 20
25195.471427449156
 11
2589.6849575981919
 21
26235.47142744916
  0
LINE
  8
_0-3_
  6
CONTINUOUS
 62
    2
 10
2589.6849575981946
 20
25195.471427449156
 11
2649.6849575981942
 21
25135.471427449156
  0
LINE
  8
_0-3_
  6
CONTINUOUS
 62
    2
 10
2909.6849575981933
 20
25135.471427449156
 11
2649.6849575981942
 21
25135.471427449156
  0
LINE
  8
_0-1_
  6
CONTINUOUS
 62
    4
 10
3269.6849575981901
 20
25235.471427449156
 11
3269.6849575981901
 21
25935.47142744916
  0
LINE
  8
_0-3_
  6
CONTINUOUS
 62
    2
 10
3269.6849575981928
 20
25035.471427449156
 11
3269.6849575981901
 21
19700
  0
LINE
  8
_0-3_
  6
CONTINUOUS
 62
    2
 10
3269.6849575981901
 20
25035.471427449156
 11
3589.6849575981919
 21
25035.471427449156
  0
LINE
  8
_0-1_
  6
CONTINUOUS
 62
    4
 10
3269.6849575981901
 20
25235.471427449156
 11
3269.6849575981928
 21
25035.471427449156
  0
LINE
  8
_0-1_
  6
CONTINUOUS
 62
    4
 10
3589.6849575981919
 20
25935.47142744916
 11
3269.6849575981901
 21
25235.471427449156
  0
LINE
  8
_0-1_
  6
CONTINUOUS
 62
    4
 10
3269.6849575981901
 20
25235.471427449156
 11
3589.6849575981946
 21
25235.471427449156
  0
LINE
  8
_0-1_
  6
CONTINUOUS
 62
    4
 10
3269.6849575981928
 20
25035.471427449156
 11
3589.6849575981946
 21
25235.471427449156
  0
LINE
  8
_0-1_
  6
CONTINUOUS
 62
    4
 10
3269.6849575981901
 20
25235.471427449156
 11
3589.6849575981919
 21
25035.471427449156
  0
LINE
  8
_0-5_
  6
CONTINUOUS
 62
    7
 10
2909.6849575981905
 20
25935.47142744916
 11
2909.6849575981905
 21
25235.471427449156
  0
LINE
  8
_0-5_
  6
CONTINUOUS
 62
    7
 10
2909.6849575981905
 20
25235.471427449156
 11
3269.6849575981901
 21
25235.471427449156
  0
LINE
  8
_0-5_
  6
CONTINUOUS
 62
    7
 10
3269.6849575981901
 20
25235.471427449156
 11
3269.6849575981901
 21
25935.47142744916
  0
LINE
  8
_0-5_
  6
CONTINUOUS
 62
    7
 10
3269.6849575981901
 20
25935.47142744916
 11
2909.6849575981905
 21
25935.47142744916
  0
LINE
  8
_0-5_
  6
CONTINUOUS
 62
    7
 10
2969.6849575981901
 20
25935.47142744916
 11
2969.6849575981901
 21
25235.471427449156
  0
LINE
  8
_0-5_
  6
CONTINUOUS
 62
    7
 10
3209.6849575981905
 20
25235.471427449156
 11
3209.6849575981905
 21
25935.47142744916
  0
LINE
  8
_0-5_
  6
CONTINUOUS
 62
    7
 10
3149.6849575981914
 20
25235.471427449156
 11
3149.6849575981914
 21
25568.804760782485
  0
LINE
  8
_0-5_
  6
CONTINUOUS
 62
    7
 10
3149.6849575981914
 20
25668.804760782485
 11
3149.6849575981914
 21
25935.47142744916
  0
LINE
  8
_0-5_
  6
CONTINUOUS
 62
    7
 10
3089.6849575981919
 20
25235.471427449156
 11
3089.6849575981919
 21
25535.471427449156
  0
LINE
  8
_0-5_
  6
CONTINUOUS
 62
    7
 10
3089.6849575981919
 20
25635.47142744916
 11
3089.6849575981919
 21
25935.47142744916
  0
LINE
  8
_0-5_
  6
CONTINUOUS
 62
    7
 10
3029.6849575981896
 20
25235.471427449156
 11
3029.6849575981896
 21
25502.138094115828
  0
LINE
  8
_0-5_
  6
CONTINUOUS
 62
    7
 10
3029.6849575981896
 20
25602.138094115828
 11
3029.6849575981896
 21
25935.47142744916
  0
LINE
  8
_0-5_
  6
CONTINUOUS
 62
    7
 10
3209.6849575981905
 20
25602.138094115828
 11
2969.6849575981901
 21
25468.804760782485
  0
LINE
  8
_0-5_
  6
CONTINUOUS
 62
    7
 10
3209.6849575981905
 20
25702.138094115828
 11
2969.6849575981901
 21
25568.804760782485
  0
LINE
  8
_0-1_
  6
CONTINUOUS
 62
    4
 10
21982.802420308253
 20
23866.681145906339
 11
21982.802420308253
 21
26866.681145906339
  0
LINE
  8
_0-1_
  6
CONTINUOUS
 62
    4
 10
22462.802420308253
 20
23866.681145906339
 11
21982.802420308253
 21
23866.681145906339
  0
LINE
  8
_0-1_
  6
CONTINUOUS
 62
    4
 10
22462.802420308253
 20
26866.681145906339
 11
22462.802420308253
 21
23866.681145906339
  0
LINE
  8
_0-4_
  6
CONTINUOUS
 62
    3
 10
22482.802420308253
 20
26477.169056648778
 11
22482.802420308253
 21
23846.681145906339
  0
LINE
  8
_0-4_
  6
CONTINUOUS
 62
    3
 10
22482.802420308253
 20
23846.681145906339
 11
21962.802420308253
 21
23846.681145906339
  0
LINE
  8
_0-1_
  6
CONTINUOUS
 62
    4
 10
22462.802420308253
 20
26866.681145906339
 11
21982.802420308253
 21
23866.681145906339
  0
LINE
  8
_0-1_
  6
CONTINUOUS
 62
    4
 10
21302.802420308253
 20
24752.010811190557
 11
21622.802420308253
 21
24752.010811190557
  0
LINE
  8
_0-1_
  6
CONTINUOUS
 62
    4
 10
21302.802420308253
 20
24752.010811190557
 11
21302.802420308253
 21
19700
  0
LINE
  8
_0-1_
  6
CONTINUOUS
 62
    4
 10
21622.802420308253
 20
24046.681145906339
 11
21302.802420308253
 21
24046.681145906339
  0
LINE
  8
_0-1_
  6
CONTINUOUS
 62
    4
 10
21302.802420308253
 20
24046.681145906339
 11
21622.802420308253
 21
24752.010811190557
  0
LINE
  8
_0-1_
  6
CONTINUOUS
 62
    4
 10
21622.802420308253
 20
23846.681145906339
 11
21302.802420308253
 21
23846.681145906339
  0
LINE
  8
_0-1_
  6
CONTINUOUS
 62
    4
 10
21622.802420308253
 20
24046.681145906339
 11
21302.802420308253
 21
23846.681145906339
  0
LINE
  8
_0-1_
  6
CONTINUOUS
 62
    4
 10
21302.802420308253
 20
24046.681145906339
 11
21622.802420308253
 21
23846.681145906339
  0
LINE
  8
_0-1_
  6
CONTINUOUS
 62
    4
 10
21622.802420308253
 20
23846.681145906339
 11
21622.802420308253
 21
24752.010811190557
  0
LINE
  8
_0-3_
  6
CONTINUOUS
 62
    2
 10
21622.802420308253
 20
23846.681145906339
 11
21622.802420308253
 21
19700
  0
LINE
  8
_0-5_
  6
CONTINUOUS
 62
    7
 10
21622.802420308253
 20
24752.010811190557
 11
21622.802420308253
 21
24052.010811190557
  0
LINE
  8
_0-5_
  6
CONTINUOUS
 62
    7
 10
21622.802420308253
 20
24052.010811190557
 11
21982.802420308253
 21
24052.010811190557
  0
LINE
  8
_0-5_
  6
CONTINUOUS
 62
    7
 10
21982.802420308253
 20
24052.010811190557
 11
21982.802420308253
 21
24752.010811190557
  0
LINE
  8
_0-5_
  6
CONTINUOUS
 62
    7
 10
21982.802420308253
 20
24752.010811190557
 11
21622.802420308253
 21
24752.010811190557
  0
LINE
  8
_0-5_
  6
CONTINUOUS
 62
    7
 10
21682.802420308253
 20
24752.010811190557
 11
21682.802420308253
 21
24052.010811190557
  0
LINE
  8
_0-5_
  6
CONTINUOUS
 62
    7
 10
21922.802420308253
 20
24052.010811190557
 11
21922.802420308253
 21
24752.010811190557
  0
LINE
  8
_0-5_
  6
CONTINUOUS
 62
    7
 10
21862.802420308253
 20
24052.010811190557
 11
21862.802420308253
 21
24385.344144523886
  0
LINE
  8
_0-5_
  6
CONTINUOUS
 62
    7
 10
21862.802420308253
 20
24485.344144523886
 11
21862.802420308253
 21
24752.010811190557
  0
LINE
  8
_0-5_
  6
CONTINUOUS
 62
    7
 10
21802.802420308253
 20
24052.010811190557
 11
21802.802420308253
 21
24352.010811190557
  0
LINE
  8
_0-5_
  6
CONTINUOUS
 62
    7
 10
21802.802420308253
 20
24452.010811190557
 11
21802.802420308253
 21
24752.010811190557
  0
LINE
  8
_0-5_
  6
CONTINUOUS
 62
    7
 10
21742.802420308253
 20
24052.010811190557
 11
21742.802420308253
 21
24318.677477857229
  0
LINE
  8
_0-5_
  6
CONTINUOUS
 62
    7
 10
21742.802420308253
 20
24418.677477857229
 11
21742.802420308253
 21
24752.010811190557
  0
LINE
  8
_0-5_
  6
CONTINUOUS
 62
    7
 10
21922.802420308253
 20
24418.677477857229
 11
21682.802420308253
 21
24285.344144523886
  0
LINE
  8
_0-5_
  6
CONTINUOUS
 62
    7
 10
21922.802420308253
 20
24518.677477857229
 11
21682.802420308253
 21
24385.344144523886
  0
LINE
  8
_0-4_
  6
CONTINUOUS
 62
    3
 10
21962.802420308253
 20
23846.681145906339
 11
21962.802420308253
 21
24035.570034795244
  0
LINE
  8
_0-4_
  6
CONTINUOUS
 62
    3
 10
16000
 20
19700
 11
24000
 21
19700
  0
LINE
  8
_0-4_
  6
CONTINUOUS
 62
    3
 10
0
 20
29700
 11
8000
 21
29700
  0
LINE
  8
_0-4_
  6
CONTINUOUS
 62
    3
 10
16000
 20
29700
 11
24000
 21
29700
  0
LINE
  8
_0-4_
  6
CONTINUOUS
 62
    3
 10
0
 20
29400
 11
8000
 21
29400
  0
LINE
  8
_0-4_
  6
CONTINUOUS
 62
    3
 10
2000
 20
29700
 11
2000
 21
29400
  0
LINE
  8
_0-4_
  6
CONTINUOUS
 62
    3
 10
4000
 20
29700
 11
4000
 21
29400
  0
LINE
  8
_0-4_
  6
CONTINUOUS
 62
    3
 10
16000
 20
29400
 11
24000
 21
29400
  0
LINE
  8
_0-4_
  6
CONTINUOUS
 62
    3
 10
18000
 20
29700
 11
18000
 21
29400
  0
LINE
  8
_0-4_
  6
CONTINUOUS
 62
    3
 10
20000
 20
29700
 11
20000
 21
29400
  0
TEXT
  8
_0-1_
 62
    4
 10
2657.3602414003544
 20
29450
 40
200
 41
1
 50
0
  1
無落雪
  0
LINE
  8
_0-4_
  6
CONTINUOUS
 62
    3
 10
16000
 20
19700
 11
24000
 21
19700
  0
TEXT
  8
_0-1_
 62
    4
 10
357.36024140035454
 20
29450
 40
200
 41
1
 50
0
  1
アウトイン35
  0
TEXT
  8
_0-1_
 62
    4
 10
16357.360241400354
 20
29450
 40
200
 41
1
 50
0
  1
アウトイン35
  0
LINE
  8
_0-4_
  6
CONTINUOUS
 62
    3
 10
0
 20
19700
 11
8000
 21
19700
  0
LINE
  8
_0-4_
  6
CONTINUOUS
 62
    3
 10
0
 20
19700
 11
8000
 21
19700
  0
TEXT
  8
_0-1_
 62
    4
 10
7233.8546117923979
 20
29450
 40
200
 41
1
 50
0
  1
S=1/5
  0
TEXT
  8
_0-1_
 62
    4
 10
23233.854611792398
 20
29450
 40
200
 41
1
 50
0
  1
S=1/5
  0
TEXT
  8
_0-1_
 62
    4
 10
18057.360241400354
 20
29450
 40
200
 41
1
 50
0
  1
軒の出のない納まり
  0
LINE
  8
_0-4_
  6
CONTINUOUS
 62
    3
 10
8000
 20
19700
 11
8000
 21
29700
  0
LINE
  8
_0-4_
  6
CONTINUOUS
 62
    3
 10
16000
 20
19700
 11
16000
 21
29700
  0
LINE
  8
_0-4_
  6
CONTINUOUS
 62
    3
 10
8000
 20
19700
 11
16000
 21
19700
  0
LINE
  8
_0-1_
  6
CONTINUOUS
 62
    4
 10
13551.724091465974
 20
24666.057431272049
 11
15651.724091465974
 21
24666.057431272049
  0
LINE
  8
_0-1_
  6
CONTINUOUS
 62
    4
 10
13551.724091465974
 20
24666.057431272049
 11
15651.724091465974
 21
26766.057431272049
  0
LINE
  8
_0-1_
  6
CONTINUOUS
 62
    4
 10
15651.724091465974
 20
24666.057431272049
 11
13551.724091465974
 21
26766.057431272049
  0
LINE
  8
_0-1_
  6
CONTINUOUS
 62
    4
 10
15651.724091465974
 20
26766.057431272049
 11
13551.724091465974
 21
26766.057431272049
  0
LINE
  8
_0-1_
  6
CONTINUOUS
 62
    4
 10
14101.72409146598
 20
26766.057431272049
 11
16000
 21
27525.367794685655
  0
LINE
  8
_0-1_
  6
CONTINUOUS
 62
    4
 10
16000
 20
28753.185370712315
 11
8565.3234310337302
 21
25779.314743125822
  0
LINE
  8
_0-2_
  6
DASHED1
 62
    7
 10
16000
 20
28774.726029940848
 11
8565.3234310337302
 21
25800.855402354362
  0
LINE
  8
_0-1_
  6
CONTINUOUS
 62
    4
 10
16000
 20
28753.185370712334
 11
8565.3234310337302
 21
25779.314743125808
  0
LINE
  8
_0-2_
  6
DASHED1
 62
    7
 10
16000
 20
28774.726029940866
 11
8565.3234310337302
 21
25800.855402354351
  0
LINE
  8
_0-1_
  6
CONTINUOUS
 62
    4
 10
8565.3234310337302
 20
25779.314743125808
 11
8654.457193358714
 21
25556.480337313355
  0
LINE
  8
_0-3_
  6
CONTINUOUS
 62
    2
 10
12511.724091465974
 20
22680.826832383362
 11
12511.724091465974
 21
22440.826832383362
  0
LINE
  8
_0-3_
  6
CONTINUOUS
 62
    2
 10
9285.3234310337248
 20
22440.826832383362
 11
12511.724091465974
 21
22440.826832383362
  0
LINE
  8
_0-1_
  6
CONTINUOUS
 62
    4
 10
9285.3234310337248
 20
22680.826832383362
 11
12511.724091465974
 21
22680.826832383362
  0
LINE
  8
_0-1_
  6
CONTINUOUS
 62
    4
 10
9285.3234310337248
 20
22680.826832383362
 11
9765.3234310337248
 21
22680.826832383362
  0
LINE
  8
_0-3_
  6
CONTINUOUS
 62
    2
 10
9285.3234310337284
 20
25680.826832383362
 11
8965.3234310337284
 21
25680.826832383362
  0
LINE
  8
_0-3_
  6
CONTINUOUS
 62
    2
 10
8965.3234310337248
 20
22600.826832383362
 11
9025.3234310337248
 21
22600.826832383362
  0
LINE
  8
_0-3_
  6
CONTINUOUS
 62
    2
 10
8965.3234310337284
 20
25680.826832383362
 11
8965.3234310337248
 21
22600.826832383362
  0
LINE
  8
_0-1_
  6
CONTINUOUS
 62
    4
 10
9765.3234310337248
 20
22680.826832383362
 11
9765.3234310337284
 21
25680.826832383362
  0
LINE
  8
_0-1_
  6
CONTINUOUS
 62
    4
 10
9285.3234310337284
 20
25680.826832383362
 11
9765.3234310337284
 21
25680.826832383362
  0
LINE
  8
_0-3_
  6
CONTINUOUS
 62
    2
 10
9285.3234310337248
 20
22080.826832383362
 11
9285.3234310337284
 21
25680.826832383362
  0
LINE
  8
_0-3_
  6
CONTINUOUS
 62
    2
 10
9025.3234310337248
 20
22080.826832383362
 11
9285.3234310337248
 21
22080.826832383362
  0
LINE
  8
_0-3_
  6
CONTINUOUS
 62
    2
 10
9025.3234310337248
 20
22600.826832383362
 11
9025.3234310337248
 21
22080.826832383362
  0
LINE
  8
_0-1_
  6
CONTINUOUS
 62
    4
 10
9285.3234310337248
 20
22680.826832383362
 11
9765.3234310337284
 21
25680.826832383362
  0
LINE
  8
_0-1_
  6
CONTINUOUS
 62
    4
 10
11711.724091465974
 20
22680.826832383362
 11
12511.724091465974
 21
22680.826832383362
  0
LINE
  8
_0-1_
  6
CONTINUOUS
 62
    4
 10
12511.724091465974
 20
22680.826832383362
 11
12511.724091465974
 21
23280.826832383362
  0
LINE
  8
_0-1_
  6
CONTINUOUS
 62
    4
 10
12511.724091465974
 20
23280.826832383362
 11
11711.724091465974
 21
23280.826832383362
  0
LINE
  8
_0-1_
  6
CONTINUOUS
 62
    4
 10
11711.724091465974
 20
23280.826832383362
 11
11711.724091465974
 21
22680.826832383362
  0
LINE
  8
_0-1_
  6
CONTINUOUS
 62
    4
 10
11711.724091465974
 20
22680.826832383362
 11
12511.724091465974
 21
23280.826832383362
  0
LINE
  8
_0-1_
  6
CONTINUOUS
 62
    4
 10
9765.3234310337248
 20
22680.826832383362
 11
10565.323431033725
 21
22680.826832383362
  0
LINE
  8
_0-1_
  6
CONTINUOUS
 62
    4
 10
10565.323431033725
 20
22680.826832383362
 11
10565.323431033725
 21
23280.826832383362
  0
LINE
  8
_0-1_
  6
CONTINUOUS
 62
    4
 10
10565.323431033725
 20
23280.826832383362
 11
9765.3234310337248
 21
23280.826832383362
  0
LINE
  8
_0-1_
  6
CONTINUOUS
 62
    4
 10
9765.3234310337248
 20
23280.826832383362
 11
9765.3234310337248
 21
22680.826832383362
  0
LINE
  8
_0-1_
  6
CONTINUOUS
 62
    4
 10
9765.3234310337248
 20
22680.826832383362
 11
10565.323431033725
 21
23280.826832383362
  0
LINE
  8
_0-1_
  6
CONTINUOUS
 62
    4
 10
13551.724091465974
 20
26766.057431272049
 11
13551.724091465974
 21
19700
  0
LINE
  8
_0-1_
  6
CONTINUOUS
 62
    4
 10
15651.724091465974
 20
26766.057431272049
 11
15651.724091465974
 21
19700
  0
LINE
  8
_0-0_
  6
CENTER1
 62
    4
 10
14601.724091465974
 20
29700
 11
14601.724091465974
 21
19700
  0
LINE
  8
_0-1_
  6
CONTINUOUS
 62
    4
 10
9765.3234310337284
 20
25680.826832383362
 11
9765.3234310337284
 21
26000.826832383358
  0
LINE
  8
_0-4_
  6
CONTINUOUS
 62
    3
 10
8543.0399904524802
 20
25781.171696507598
 11
8691.5962609941198
 21
25409.781020153496
  0
LINE
  8
_0-4_
  6
CONTINUOUS
 62
    3
 10
8691.5962609941198
 20
25409.781020153496
 11
8681.6335793285161
 21
25466.651179825276
  0
LINE
  8
_0-4_
  6
CONTINUOUS
 62
    3
 10
8543.0399904524802
 20
25781.171696507598
 11
9285.8213431606891
 21
26078.28423759088
  0
LINE
  8
_0-3_
  6
CONTINUOUS
 62
    2
 10
16000
 20
28990.132622226247
 11
8093.657272064007
 21
25827.595531051884
  0
LINE
  8
_0-3_
  6
DASHED3
 62
    4
 10
16000
 20
28882.429326083547
 11
8130.796339699421
 21
25734.74786196334
  0
LINE
  8
_0-3_
  6
CONTINUOUS
 62
    2
 10
8093.657272064007
 20
25827.595531051884
 11
8171.6493140983775
 21
25632.615425965956
  0
LINE
  8
_0-3_
  6
CONTINUOUS
 62
    2
 10
8171.6493140983775
 20
25632.615425965956
 11
8565.3234310337302
 21
25800.855402354362
  0
LINE
  8
_0-3_
  6
CONTINUOUS
 62
    2
 10
12871.724091465972
 20
22440.826832383376
 11
12871.724091465972
 21
19700
  0
LINE
  8
_0-3_
  6
CONTINUOUS
 62
    2
 10
12871.724091465972
 20
22440.826832383376
 11
13191.724091465971
 21
22440.826832383376
  0
LINE
  8
_0-1_
  6
CONTINUOUS
 62
    4
 10
16000
 20
28494.697459969866
 11
8654.457193358714
 21
25556.480337313355
  0
LINE
  8
_0-1_
  6
CONTINUOUS
 62
    4
 10
13551.724091465974
 20
26546.057431272049
 11
9765.3234310337284
 21
25031.497167099151
  0
LINE
  8
_0-5_
  6
CONTINUOUS
 62
    7
 10
12511.724091465974
 20
23280.826832383362
 11
12511.724091465974
 21
22580.826832383362
  0
LINE
  8
_0-5_
  6
CONTINUOUS
 62
    7
 10
12511.724091465974
 20
22580.826832383362
 11
12871.724091465972
 21
22580.826832383362
  0
LINE
  8
_0-5_
  6
CONTINUOUS
 62
    7
 10
12871.724091465972
 20
22580.826832383362
 11
12871.724091465972
 21
23280.826832383362
  0
LINE
  8
_0-5_
  6
CONTINUOUS
 62
    7
 10
12871.724091465972
 20
23280.826832383362
 11
12511.724091465974
 21
23280.826832383362
  0
LINE
  8
_0-5_
  6
CONTINUOUS
 62
    7
 10
12571.724091465974
 20
23280.826832383362
 11
12571.724091465974
 21
22580.826832383362
  0
LINE
  8
_0-5_
  6
CONTINUOUS
 62
    7
 10
12811.724091465976
 20
22580.826832383362
 11
12811.724091465976
 21
23280.826832383362
  0
LINE
  8
_0-5_
  6
CONTINUOUS
 62
    7
 10
12751.724091465974
 20
22580.826832383362
 11
12751.724091465974
 21
22914.16016571669
  0
LINE
  8
_0-5_
  6
CONTINUOUS
 62
    7
 10
12751.724091465974
 20
23014.16016571669
 11
12751.724091465974
 21
23280.826832383362
  0
LINE
  8
_0-5_
  6
CONTINUOUS
 62
    7
 10
12691.724091465974
 20
22580.826832383362
 11
12691.724091465974
 21
22880.826832383362
  0
LINE
  8
_0-5_
  6
CONTINUOUS
 62
    7
 10
12691.724091465974
 20
22980.826832383362
 11
12691.724091465974
 21
23280.826832383362
  0
LINE
  8
_0-5_
  6
CONTINUOUS
 62
    7
 10
12631.724091465974
 20
22580.826832383362
 11
12631.724091465974
 21
22847.493499050033
  0
LINE
  8
_0-5_
  6
CONTINUOUS
 62
    7
 10
12631.724091465974
 20
22947.493499050033
 11
12631.724091465974
 21
23280.826832383362
  0
LINE
  8
_0-5_
  6
CONTINUOUS
 62
    7
 10
12811.724091465976
 20
22947.493499050033
 11
12571.724091465974
 21
22814.16016571669
  0
LINE
  8
_0-5_
  6
CONTINUOUS
 62
    7
 10
12811.724091465976
 20
23047.493499050033
 11
12571.724091465974
 21
22914.16016571669
  0
LINE
  8
_0-1_
  6
CONTINUOUS
 62
    4
 10
12871.724091465972
 20
22580.826832383362
 11
13191.724091465974
 21
22580.826832383362
  0
LINE
  8
_0-1_
  6
CONTINUOUS
 62
    4
 10
12871.724091465972
 20
22580.826832383362
 11
12871.724091465972
 21
22440.826832383376
  0
LINE
  8
_0-1_
  6
CONTINUOUS
 62
    4
 10
12871.724091465972
 20
22440.826832383376
 11
13191.724091465974
 21
22580.826832383362
  0
LINE
  8
_0-1_
  6
CONTINUOUS
 62
    4
 10
12871.724091465972
 20
22580.826832383362
 11
13191.724091465971
 21
22440.826832383376
  0
LINE
  8
_0-1_
  6
CONTINUOUS
 62
    4
 10
12871.724091465972
 20
23480.826832383376
 11
13191.724091465974
 21
23480.826832383376
  0
LINE
  8
_0-1_
  6
CONTINUOUS
 62
    4
 10
13191.724091465974
 20
19700
 11
13191.724091465974
 21
23480.826832383376
  0
LINE
  8
_0-1_
  6
CONTINUOUS
 62
    4
 10
12871.724091465972
 20
22580.826832383362
 11
12871.724091465972
 21
23480.826832383376
  0
LINE
  8
_0-1_
  6
CONTINUOUS
 62
    4
 10
13191.724091465974
 20
23480.826832383376
 11
12871.724091465972
 21
22580.826832383362
  0
LINE
  8
_0-4_
  6
CONTINUOUS
 62
    3
 10
8000
 20
29400
 11
16000
 21
29400
  0
LINE
  8
_0-4_
  6
CONTINUOUS
 62
    3
 10
10000
 20
29700
 11
10000
 21
29400
  0
LINE
  8
_0-4_
  6
CONTINUOUS
 62
    3
 10
12000
 20
29700
 11
12000
 21
29400
  0
LINE
  8
_0-4_
  6
CONTINUOUS
 62
    3
 10
8000
 20
19700
 11
16000
 21
19700
  0
TEXT
  8
_0-1_
 62
    4
 10
8357.3602414003544
 20
29450
 40
200
 41
1
 50
0
  1
アウトイン35
  0
TEXT
  8
_0-1_
 62
    4
 10
15233.854611792398
 20
29450
 40
200
 41
1
 50
0
  1
S=1/5
  0
LINE
  8
_0-2_
  6
DASHED1
 62
    7
 10
13531.724091465974
 20
26766.057431272049
 11
13531.724091465974
 21
19700
  0
LINE
  8
_0-4_
  6
CONTINUOUS
 62
    3
 10
24000
 20
29700
 11
32000
 21
29700
  0
LINE
  8
_0-4_
  6
CONTINUOUS
 62
    3
 10
24000
 20
19700
 11
24000
 21
29700
  0
LINE
  8
_0-4_
  6
CONTINUOUS
 62
    3
 10
32000
 20
19700
 11
32000
 21
29700
  0
LINE
  8
_0-4_
  6
CONTINUOUS
 62
    3
 10
24000
 20
19700
 11
32000
 21
19700
  0
LINE
  8
_0-1_
  6
CONTINUOUS
 62
    4
 10
29551.724091465974
 20
24666.057431272049
 11
31651.724091465974
 21
24666.057431272049
  0
LINE
  8
_0-1_
  6
CONTINUOUS
 62
    4
 10
29551.724091465974
 20
24666.057431272049
 11
31651.724091465974
 21
26766.057431272049
  0
LINE
  8
_0-1_
  6
CONTINUOUS
 62
    4
 10
31651.724091465974
 20
24666.057431272049
 11
29551.724091465974
 21
26766.057431272049
  0
LINE
  8
_0-1_
  6
CONTINUOUS
 62
    4
 10
31651.724091465974
 20
26766.057431272049
 11
29551.724091465974
 21
26766.057431272049
  0
LINE
  8
_0-1_
  6
CONTINUOUS
 62
    4
 10
30101.724091465978
 20
26766.057431272049
 11
32000
 21
27525.367794685655
  0
LINE
  8
_0-1_
  6
CONTINUOUS
 62
    4
 10
32000
 20
28753.185370712315
 11
24565.323431033728
 21
25779.314743125822
  0
LINE
  8
_0-2_
  6
DASHED1
 62
    7
 10
32000
 20
28774.726029940848
 11
24565.323431033728
 21
25800.855402354362
  0
LINE
  8
_0-1_
  6
CONTINUOUS
 62
    4
 10
32000
 20
28753.185370712334
 11
24565.323431033728
 21
25779.314743125808
  0
LINE
  8
_0-2_
  6
DASHED1
 62
    7
 10
32000
 20
28774.726029940866
 11
24565.323431033728
 21
25800.855402354351
  0
LINE
  8
_0-1_
  6
CONTINUOUS
 62
    4
 10
24565.323431033728
 20
25779.314743125808
 11
24654.457193358714
 21
25556.480337313355
  0
LINE
  8
_0-1_
  6
CONTINUOUS
 62
    4
 10
25285.323431033725
 20
22680.826832383362
 11
25765.323431033728
 21
22680.826832383362
  0
LINE
  8
_0-3_
  6
CONTINUOUS
 62
    2
 10
25285.323431033728
 20
25680.826832383362
 11
24965.323431033728
 21
25680.826832383362
  0
LINE
  8
_0-3_
  6
CONTINUOUS
 62
    2
 10
24965.323431033725
 20
22600.826832383362
 11
25025.323431033725
 21
22600.826832383362
  0
LINE
  8
_0-3_
  6
CONTINUOUS
 62
    2
 10
24965.323431033728
 20
25680.826832383362
 11
24965.323431033725
 21
22600.826832383362
  0
LINE
  8
_0-1_
  6
CONTINUOUS
 62
    4
 10
25765.323431033728
 20
22680.826832383362
 11
25765.323431033728
 21
25680.826832383362
  0
LINE
  8
_0-1_
  6
CONTINUOUS
 62
    4
 10
25285.323431033728
 20
25680.826832383362
 11
25765.323431033728
 21
25680.826832383362
  0
LINE
  8
_0-3_
  6
CONTINUOUS
 62
    2
 10
25285.323431033725
 20
22080.826832383362
 11
25285.323431033728
 21
25680.826832383362
  0
LINE
  8
_0-3_
  6
CONTINUOUS
 62
    2
 10
25025.323431033725
 20
22080.826832383362
 11
25285.323431033725
 21
22080.826832383362
  0
LINE
  8
_0-3_
  6
CONTINUOUS
 62
    2
 10
25025.323431033725
 20
22600.826832383362
 11
25025.323431033725
 21
22080.826832383362
  0
LINE
  8
_0-1_
  6
CONTINUOUS
 62
    4
 10
25285.323431033725
 20
22680.826832383362
 11
25765.323431033728
 21
25680.826832383362
  0
LINE
  8
_0-1_
  6
CONTINUOUS
 62
    4
 10
29551.724091465974
 20
26766.057431272049
 11
29551.724091465974
 21
19700
  0
LINE
  8
_0-1_
  6
CONTINUOUS
 62
    4
 10
31651.724091465974
 20
26766.057431272049
 11
31651.724091465974
 21
19700
  0
LINE
  8
_0-0_
  6
CENTER1
 62
    4
 10
30601.724091465974
 20
29700
 11
30601.724091465974
 21
19700
  0
LINE
  8
_0-1_
  6
CONTINUOUS
 62
    4
 10
25765.323431033728
 20
25680.826832383362
 11
25765.323431033728
 21
26000.826832383358
  0
LINE
  8
_0-4_
  6
CONTINUOUS
 62
    3
 10
24543.039990452482
 20
25781.171696507598
 11
24691.59626099412
 21
25409.781020153496
  0
LINE
  8
_0-4_
  6
CONTINUOUS
 62
    3
 10
24691.59626099412
 20
25409.781020153496
 11
24681.633579328518
 21
25466.651179825276
  0
LINE
  8
_0-4_
  6
CONTINUOUS
 62
    3
 10
24543.039990452482
 20
25781.171696507598
 11
25285.821343160689
 21
26078.28423759088
  0
LINE
  8
_0-3_
  6
CONTINUOUS
 62
    2
 10
32000
 20
28990.132622226247
 11
24093.657272064007
 21
25827.595531051884
  0
LINE
  8
_0-3_
  6
DASHED3
 62
    4
 10
32000
 20
28882.429326083547
 11
24130.796339699424
 21
25734.74786196334
  0
LINE
  8
_0-3_
  6
CONTINUOUS
 62
    2
 10
24093.657272064007
 20
25827.595531051884
 11
24171.649314098377
 21
25632.615425965956
  0
LINE
  8
_0-3_
  6
CONTINUOUS
 62
    2
 10
24171.649314098377
 20
25632.615425965956
 11
24565.323431033728
 21
25800.855402354362
  0
LINE
  8
_0-1_
  6
CONTINUOUS
 62
    4
 10
32000
 20
28494.697459969866
 11
24654.457193358714
 21
25556.480337313355
  0
LINE
  8
_0-1_
  6
CONTINUOUS
 62
    4
 10
29551.724091465974
 20
26546.057431272049
 11
25765.323431033728
 21
25031.497167099151
  0
LINE
  8
_0-4_
  6
CONTINUOUS
 62
    3
 10
24000
 20
29700
 11
32000
 21
29700
  0
LINE
  8
_0-4_
  6
CONTINUOUS
 62
    3
 10
24000
 20
29400
 11
32000
 21
29400
  0
LINE
  8
_0-4_
  6
CONTINUOUS
 62
    3
 10
26000
 20
29700
 11
26000
 21
29400
  0
LINE
  8
_0-4_
  6
CONTINUOUS
 62
    3
 10
28000
 20
29700
 11
28000
 21
29400
  0
LINE
  8
_0-4_
  6
CONTINUOUS
 62
    3
 10
24000
 20
19700
 11
32000
 21
19700
  0
TEXT
  8
_0-1_
 62
    4
 10
24357.360241400354
 20
29450
 40
200
 41
1
 50
0
  1
アウトイン35
  0
TEXT
  8
_0-1_
 62
    4
 10
31233.854611792402
 20
29450
 40
200
 41
1
 50
0
  1
S=1/5
  0
LINE
  8
_0-2_
  6
DASHED1
 62
    7
 10
29531.724091465974
 20
26766.057431272049
 11
29531.724091465974
 21
19700
  0
LINE
  8
_0-4_
  6
CONTINUOUS
 62
    3
 10
8000
 20
29700
 11
16000
 21
29700
  0
LINE
  8
_0-4_
  6
CONTINUOUS
 62
    3
 10
8000
 20
29700
 11
16000
 21
29700
  0
LINE
  8
_0-4_
  6
CONTINUOUS
 62
    3
 10
24000
 20
29700
 11
32000
 21
29700
  0
LINE
  8
_0-4_
  6
CONTINUOUS
 62
    3
 10
24000
 20
29700
 11
32000
 21
29700
  0
LINE
  8
_0-5_
  6
CONTINUOUS
 62
    7
 10
25765.323431033728
 20
23280.826832383365
 11
25765.323431033728
 21
22580.826832383365
  0
LINE
  8
_0-5_
  6
CONTINUOUS
 62
    7
 10
25765.323431033728
 20
22580.826832383365
 11
26125.323431033728
 21
22580.826832383365
  0
LINE
  8
_0-5_
  6
CONTINUOUS
 62
    7
 10
26125.323431033728
 20
22580.826832383365
 11
26125.323431033728
 21
23280.826832383365
  0
LINE
  8
_0-5_
  6
CONTINUOUS
 62
    7
 10
26125.323431033728
 20
23280.826832383365
 11
25765.323431033728
 21
23280.826832383365
  0
LINE
  8
_0-5_
  6
CONTINUOUS
 62
    7
 10
25825.323431033728
 20
23280.826832383365
 11
25825.323431033728
 21
22580.826832383365
  0
LINE
  8
_0-5_
  6
CONTINUOUS
 62
    7
 10
26065.323431033728
 20
22580.826832383365
 11
26065.323431033728
 21
23280.826832383365
  0
LINE
  8
_0-5_
  6
CONTINUOUS
 62
    7
 10
26005.323431033728
 20
22580.826832383365
 11
26005.323431033728
 21
22914.160165716694
  0
LINE
  8
_0-5_
  6
CONTINUOUS
 62
    7
 10
26005.323431033728
 20
23014.160165716694
 11
26005.323431033728
 21
23280.826832383365
  0
LINE
  8
_0-5_
  6
CONTINUOUS
 62
    7
 10
25945.323431033728
 20
22580.826832383365
 11
25945.323431033728
 21
22880.826832383365
  0
LINE
  8
_0-5_
  6
CONTINUOUS
 62
    7
 10
25945.323431033728
 20
22980.826832383365
 11
25945.323431033728
 21
23280.826832383365
  0
LINE
  8
_0-5_
  6
CONTINUOUS
 62
    7
 10
25885.323431033725
 20
22580.826832383365
 11
25885.323431033725
 21
22847.493499050037
  0
LINE
  8
_0-5_
  6
CONTINUOUS
 62
    7
 10
25885.323431033725
 20
22947.493499050037
 11
25885.323431033725
 21
23280.826832383365
  0
LINE
  8
_0-5_
  6
CONTINUOUS
 62
    7
 10
26065.323431033728
 20
22947.493499050037
 11
25825.323431033728
 21
22814.160165716694
  0
LINE
  8
_0-5_
  6
CONTINUOUS
 62
    7
 10
26065.323431033728
 20
23047.493499050037
 11
25825.323431033728
 21
22914.160165716694
  0
LINE
  8
_0-3_
  6
CONTINUOUS
 62
    2
 10
28871.724091465974
 20
22300.826832383456
 11
28871.724091465974
 21
19700
  0
LINE
  8
_0-1_
  6
CONTINUOUS
 62
    4
 10
29191.724091465971
 20
19700
 11
29191.724091465971
 21
22440.826832383442
  0
LINE
  8
_0-3_
  6
CONTINUOUS
 62
    2
 10
28871.724091465974
 20
22300.826832383456
 11
29191.724091465971
 21
22300.826832383456
  0
LINE
  8
_0-1_
  6
CONTINUOUS
 62
    4
 10
28871.724091465974
 20
22440.826832383442
 11
28871.724091465974
 21
22300.826832383456
  0
LINE
  8
_0-1_
  6
CONTINUOUS
 62
    4
 10
28871.724091465974
 20
22300.826832383456
 11
29191.724091465971
 21
22440.826832383442
  0
LINE
  8
_0-1_
  6
CONTINUOUS
 62
    4
 10
28871.724091465974
 20
22440.826832383442
 11
29191.724091465971
 21
22300.826832383456
  0
LINE
  8
_0-1_
  6
CONTINUOUS
 62
    4
 10
28871.724091465974
 20
22440.826832383442
 11
29191.724091465971
 21
22440.826832383442
  0
LINE
  8
_0-3_
  6
CONTINUOUS
 62
    2
 10
29191.724091465971
 20
22680.826832383362
 11
29191.724091465971
 21
22440.826832383362
  0
LINE
  8
_0-1_
  6
CONTINUOUS
 62
    4
 10
28391.724091465971
 20
22680.826832383362
 11
29191.724091465971
 21
22680.826832383362
  0
LINE
  8
_0-1_
  6
CONTINUOUS
 62
    4
 10
29191.724091465971
 20
22680.826832383362
 11
29191.724091465971
 21
23280.826832383362
  0
LINE
  8
_0-1_
  6
CONTINUOUS
 62
    4
 10
29191.724091465971
 20
23280.826832383362
 11
28391.724091465971
 21
23280.826832383362
  0
LINE
  8
_0-1_
  6
CONTINUOUS
 62
    4
 10
28391.724091465971
 20
23280.826832383362
 11
28391.724091465971
 21
22680.826832383362
  0
LINE
  8
_0-1_
  6
CONTINUOUS
 62
    4
 10
28391.724091465971
 20
22680.826832383362
 11
29191.724091465971
 21
23280.826832383362
  0
LINE
  8
_0-1_
  6
CONTINUOUS
 62
    4
 10
26925.323431033725
 20
22680.826832383362
 11
26925.323431033725
 21
23280.826832383362
  0
LINE
  8
_0-1_
  6
CONTINUOUS
 62
    4
 10
26925.323431033725
 20
23280.826832383362
 11
26125.323431033725
 21
23280.826832383362
  0
LINE
  8
_0-1_
  6
CONTINUOUS
 62
    4
 10
26125.323431033725
 20
23280.826832383362
 11
26125.323431033725
 21
22680.826832383362
  0
LINE
  8
_0-1_
  6
CONTINUOUS
 62
    4
 10
26125.323431033725
 20
22680.826832383362
 11
26925.323431033725
 21
23280.826832383362
  0
LINE
  8
_0-1_
  6
CONTINUOUS
 62
    4
 10
25285.323431033725
 20
22680.826832383362
 11
25765.323431033728
 21
22680.826832383362
  0
LINE
  8
_0-1_
  6
CONTINUOUS
 62
    4
 10
26125.323431033728
 20
22680.826832383362
 11
29191.724091465971
 21
22680.826832383362
  0
LINE
  8
_0-3_
  6
CONTINUOUS
 62
    2
 10
25285.323431033725
 20
22440.826832383362
 11
25765.323431033728
 21
22440.826832383362
  0
LINE
  8
_0-3_
  6
CONTINUOUS
 62
    2
 10
26125.323431033725
 20
22440.826832383362
 11
29191.724091465971
 21
22440.826832383362
  0
LINE
  8
_0-1_
  6
CONTINUOUS
 62
    4
 10
26125.323431033725
 20
22680.826832383362
 11
26925.323431033725
 21
22680.826832383362
  0
LINE
  8
_0-3_
  6
CONTINUOUS
 62
    2
 10
26125.323431033728
 20
22680.826832383362
 11
26125.323431033725
 21
22440.826832383362
  0
LINE
  8
_0-3_
  6
CONTINUOUS
 62
    2
 10
25765.323431033728
 20
22680.826832383362
 11
25765.323431033728
 21
22440.826832383362
  0
TEXT
  8
_0-1_
 62
    4
 10
10007.360241400354
 20
29450
 40
200
 41
1
 50
0
  1
軒の出のある納まり1
  0
TEXT
  8
_0-1_
 62
    4
 10
26007.360241400351
 20
29450
 40
200
 41
1
 50
0
  1
軒の出のある納まり2
  0
LINE
  8
_1-5_
  6
CONTINUOUS
 62
    7
 10
3029.6849575981896
 20
25235.471427449156
 11
2529.2518892137737
 21
24368.695927219753
  0
LINE
  8
_1-5_
  6
CONTINUOUS
 62
    7
 10
2529.2518892137737
 20
24368.695927219753
 11
2329.2518892137737
 21
24368.695927219753
  0
SOLID
  8
_1-5_
  6
CONTINUOUS
 62
    7
 10
3029.6849575981896
 20
25235.471427449156
 11
2960.4856366249719
 21
25159.953620202861
 12
2979.6849575981896
 22
25148.868887070712
 13
2979.6849575981896
 23
25148.868887070712
  0
LINE
  8
_1-5_
  6
CONTINUOUS
 62
    7
 10
3029.6849575981896
 20
25235.471427449156
 11
2960.4856366249719
 21
25159.953620202861
  0
LINE
  8
_1-5_
  6
CONTINUOUS
 62
    7
 10
2960.4856366249719
 20
25159.953620202861
 11
2979.6849575981896
 21
25148.868887070712
  0
LINE
  8
_1-5_
  6
CONTINUOUS
 62
    7
 10
2979.6849575981896
 20
25148.868887070712
 11
3029.6849575981896
 21
25235.471427449156
  0
TEXT
  8
_1-5_
 62
    5
 10
1239.251889213773
 20
24268.695927219753
 40
200
 41
1
 50
0
  1
アウトイン35
  0
LINE
  8
_1-5_
  6
CONTINUOUS
 62
    7
 10
12691.724091465974
 20
22580.826832383362
 11
12094.618022861694
 21
21546.608784053042
  0
LINE
  8
_1-5_
  6
CONTINUOUS
 62
    7
 10
12094.618022861694
 20
21546.608784053042
 11
11894.618022861694
 21
21546.608784053042
  0
SOLID
  8
_1-5_
  6
CONTINUOUS
 62
    7
 10
12691.724091465974
 20
22580.826832383362
 11
12622.524770492753
 21
22505.309025137067
 12
12641.724091465974
 22
22494.224292004918
 13
12641.724091465974
 23
22494.224292004918
  0
LINE
  8
_1-5_
  6
CONTINUOUS
 62
    7
 10
12691.724091465974
 20
22580.826832383362
 11
12622.524770492753
 21
22505.309025137067
  0
LINE
  8
_1-5_
  6
CONTINUOUS
 62
    7
 10
12622.524770492753
 20
22505.309025137067
 11
12641.724091465974
 21
22494.224292004918
  0
LINE
  8
_1-5_
  6
CONTINUOUS
 62
    7
 10
12641.724091465974
 20
22494.224292004918
 11
12691.724091465974
 21
22580.826832383362
  0
TEXT
  8
_1-5_
 62
    5
 10
10804.618022861694
 20
21446.608784053042
 40
200
 41
1
 50
0
  1
アウトイン35
  0
LINE
  8
_1-5_
  6
CONTINUOUS
 62
    7
 10
21742.802420308253
 20
24052.010811190557
 11
22204.186072944849
 21
23252.870883042262
  0
LINE
  8
_1-5_
  6
CONTINUOUS
 62
    7
 10
22204.186072944849
 20
23252.870883042262
 11
22404.186072944849
 21
23252.870883042262
  0
SOLID
  8
_1-5_
  6
CONTINUOUS
 62
    7
 10
21742.802420308253
 20
24052.010811190557
 11
21812.001741281474
 21
23976.493003944262
 12
21792.802420308253
 22
23965.408270812113
 13
21792.802420308253
 23
23965.408270812113
  0
LINE
  8
_1-5_
  6
CONTINUOUS
 62
    7
 10
21742.802420308253
 20
24052.010811190557
 11
21812.001741281474
 21
23976.493003944262
  0
LINE
  8
_1-5_
  6
CONTINUOUS
 62
    7
 10
21812.001741281474
 20
23976.493003944262
 11
21792.802420308253
 21
23965.408270812113
  0
LINE
  8
_1-5_
  6
CONTINUOUS
 62
    7
 10
21792.802420308253
 20
23965.408270812113
 11
21742.802420308253
 21
24052.010811190557
  0
TEXT
  8
_1-5_
 62
    5
 10
22404.186072944849
 20
23152.870883042262
 40
200
 41
1
 50
0
  1
アウトイン35
  0
LINE
  8
_1-5_
  6
CONTINUOUS
 62
    7
 10
25945.323431033728
 20
22580.826832383365
 11
26452.608227778008
 21
21702.183790515028
  0
LINE
  8
_1-5_
  6
CONTINUOUS
 62
    7
 10
26452.608227778008
 20
21702.183790515028
 11
26652.608227778008
 21
21702.183790515028
  0
SOLID
  8
_1-5_
  6
CONTINUOUS
 62
    7
 10
25945.323431033728
 20
22580.826832383365
 11
26014.522752006953
 21
22505.309025137067
 12
25995.323431033728
 22
22494.224292004921
 13
25995.323431033728
 23
22494.224292004921
  0
LINE
  8
_1-5_
  6
CONTINUOUS
 62
    7
 10
25945.323431033728
 20
22580.826832383365
 11
26014.522752006953
 21
22505.309025137067
  0
LINE
  8
_1-5_
  6
CONTINUOUS
 62
    7
 10
26014.522752006953
 20
22505.309025137067
 11
25995.323431033728
 21
22494.224292004921
  0
LINE
  8
_1-5_
  6
CONTINUOUS
 62
    7
 10
25995.323431033728
 20
22494.224292004921
 11
25945.323431033728
 21
22580.826832383365
  0
TEXT
  8
_1-5_
 62
    5
 10
26652.608227778008
 20
21602.183790515028
 40
200
 41
1
 50
0
  1
アウトイン35
  0
LINE
  8
_1-5_
  6
CONTINUOUS
 62
    7
 10
3269.6849575981901
 20
25035.471427449156
 11
2528.9813524104034
 21
23752.535149914467
  0
LINE
  8
_1-5_
  6
CONTINUOUS
 62
    7
 10
2528.9813524104034
 20
23752.535149914467
 11
2328.9813524104034
 21
23752.535149914467
  0
SOLID
  8
_1-5_
  6
CONTINUOUS
 62
    7
 10
3269.6849575981901
 20
25035.471427449156
 11
3200.4856366249724
 21
24959.953620202861
 12
3219.6849575981901
 22
24948.868887070712
 13
3219.6849575981901
 23
24948.868887070712
  0
LINE
  8
_1-5_
  6
CONTINUOUS
 62
    7
 10
3269.6849575981901
 20
25035.471427449156
 11
3200.4856366249724
 21
24959.953620202861
  0
LINE
  8
_1-5_
  6
CONTINUOUS
 62
    7
 10
3200.4856366249724
 20
24959.953620202861
 11
3219.6849575981901
 21
24948.868887070712
  0
LINE
  8
_1-5_
  6
CONTINUOUS
 62
    7
 10
3219.6849575981901
 20
24948.868887070712
 11
3269.6849575981901
 21
25035.471427449156
  0
TEXT
  8
_1-5_
 62
    5
 10
1408.9813524104015
 20
23652.535149914467
 40
200
 41
1
 50
0
  1
コーキング
  0
LINE
  8
_1-5_
  6
CONTINUOUS
 62
    7
 10
12871.724091465972
 20
22440.826832383376
 11
12064.627960124271
 21
21042.895326307262
  0
LINE
  8
_1-5_
  6
CONTINUOUS
 62
    7
 10
12064.627960124271
 20
21042.895326307262
 11
11864.627960124271
 21
21042.895326307262
  0
SOLID
  8
_1-5_
  6
CONTINUOUS
 62
    7
 10
12871.724091465972
 20
22440.826832383376
 11
12802.524770492755
 21
22365.309025137081
 12
12821.724091465972
 22
22354.224292004932
 13
12821.724091465972
 23
22354.224292004932
  0
LINE
  8
_1-5_
  6
CONTINUOUS
 62
    7
 10
12871.724091465972
 20
22440.826832383376
 11
12802.524770492755
 21
22365.309025137081
  0
LINE
  8
_1-5_
  6
CONTINUOUS
 62
    7
 10
12802.524770492755
 20
22365.309025137081
 11
12821.724091465972
 21
22354.224292004932
  0
LINE
  8
_1-5_
  6
CONTINUOUS
 62
    7
 10
12821.724091465972
 20
22354.224292004932
 11
12871.724091465972
 21
22440.826832383376
  0
TEXT
  8
_1-5_
 62
    5
 10
10944.627960124271
 20
20942.895326307262
 40
200
 41
1
 50
0
  1
コーキング
  0
LINE
  8
_1-5_
  6
CONTINUOUS
 62
    7
 10
21622.802420308253
 20
23846.681145906339
 11
22219.767102806149
 21
22812.707985495763
  0
LINE
  8
_1-5_
  6
CONTINUOUS
 62
    7
 10
22219.767102806149
 20
22812.707985495763
 11
22419.767102806149
 21
22812.707985495763
  0
SOLID
  8
_1-5_
  6
CONTINUOUS
 62
    7
 10
21622.802420308253
 20
23846.681145906339
 11
21692.001741281474
 21
23771.163338660044
 12
21672.802420308253
 22
23760.078605527895
 13
21672.802420308253
 23
23760.078605527895
  0
LINE
  8
_1-5_
  6
CONTINUOUS
 62
    7
 10
21622.802420308253
 20
23846.681145906339
 11
21692.001741281474
 21
23771.163338660044
  0
LINE
  8
_1-5_
  6
CONTINUOUS
 62
    7
 10
21692.001741281474
 20
23771.163338660044
 11
21672.802420308253
 21
23760.078605527895
  0
LINE
  8
_1-5_
  6
CONTINUOUS
 62
    7
 10
21672.802420308253
 20
23760.078605527895
 11
21622.802420308253
 21
23846.681145906339
  0
TEXT
  8
_1-5_
 62
    5
 10
22419.767102806149
 20
22712.707985495763
 40
200
 41
1
 50
0
  1
コーキング
  0
ENDSEC
  0
EOF
