  0
SECTION
  2
HEADER
  9
$ACADVER
  1
AC1009
  9
$INSBASE
 10
0
 20
0
 30
0
  9
$EXTMIN
 10
0
 20
0
  9
$EXTMAX
 10
42000
 20
29700
  9
$LIMMIN
 10
0
 20
0
  9
$LIMMAX
 10
42000
 20
29700
  9
$LTSCALE
 40
100
  0
ENDSEC
  0
SECTION
  2
TABLES
  0
TABLE
  2
LTYPE
 70
     9
  0
LTYPE
  2
CONTINUOUS
 70
    64
  3
実線
 72
    65
 73
     0
 40
0.0
  0
LTYPE
  2
DASHED1
 70
    64
  3
--  --  --  --  --  --  --  --  
 72
    65
 73
     2
 40
2.5
 49
1.25
 49
-1.25
  0
LTYPE
  2
DASHED2
 70
    64
  3
----    ----    ----    ----    
 72
    65
 73
     2
 40
5.0
 49
2.5
 49
-2.5
  0
LTYPE
  2
DASHED3
 70
    64
  3
------  ------  ------  ------  
 72
    65
 73
     2
 40
5.0
 49
3.75
 49
-1.25
  0
LTYPE
  2
CENTER1
 70
    64
  3
----- - ----- - ----- - ----- - 
 72
    65
 73
     4
 40
10.0
 49
6.25
 49
-1.25
 49
1.25
 49
-1.25
  0
LTYPE
  2
CENTER2
 70
    64
  3
----------  --  ----------  --  
 72
    65
 73
     4
 40
20.0
 49
12.5
 49
-2.5
 49
2.5
 49
-2.5
  0
LTYPE
  2
PHANTOM1
 70
    64
  3
--- - - --- - - --- - - --- - - 
 72
    65
 73
     6
 40
10.0
 49
3.25
 49
-1.25
 49
1.25
 49
-1.25
 49
1.25
 49
-1.25
  0
LTYPE
  2
PHANTOM2
 70
    64
  3
--------  -  -  --------  -  -  
 72
    65
 73
     6
 40
20.0
 49
10.0
 49
-2.5
 49
1.25
 49
-2.5
 49
1.25
 49
-2.5
  0
LTYPE
  2
DOT
 70
    64
  3
-   -   -   -   -   -   -   -   
 72
    65
 73
     2
 40
2.5
 49
0.625
 49
-1.875
  0
LTYPE
  2
DUMMY
 70
    64
  3
ダミー
 72
    65
 73
     0
 40
0.0
  0
LTYPE
  2
RAND1
 70
    64
  3
ランダム線1
 72
    65
 73
     4
 40
10.0
 49
1.0
 49
-2.0
 49
3.0
 49
-4.0
  0
LTYPE
  2
RAND2
 70
    64
  3
ランダム線2
 72
    65
 73
     4
 40
14.0
 49
2.0
 49
-3.0
 49
4.0
 49
-5.0
  0
LTYPE
  2
RAND3
 70
    64
  3
ランダム線3
 72
    65
 73
     4
 40
18.0
 49
3.0
 49
-4.0
 49
5.0
 49
-6.0
  0
LTYPE
  2
RAND4
 70
    64
  3
ランダム線4
 72
    65
 73
     4
 40
22.0
 49
4.0
 49
-5.0
 49
6.0
 49
-7.0
  0
LTYPE
  2
RAND5
 70
    64
  3
ランダム線5
 72
    65
 73
     4
 40
26.0
 49
5.0
 49
-6.0
 49
7.0
 49
-8.0
  0
LTYPE
  2
LONG1
 70
    64
  3
----------  --  ----------  --  
 72
    65
 73
     4
 40
40.0
 49
32.5
 49
-2.5
 49
2.5
 49
-2.5
  0
LTYPE
  2
LONG2
 70
    64
  3
--------  -  -  --------  -  -  
 72
    65
 73
     6
 40
40.0
 49
30.0
 49
-2.5
 49
1.25
 49
-2.5
 49
1.25
 49
-2.5
  0
LTYPE
  2
LONG3
 70
    64
  3
+++++++++++++++..+++++++++++++++
 72
    65
 73
     2
 40
40.0
 49
37.5
 49
-2.5
  0
LTYPE
  2
LONG4
 70
    64
  3
+++++++++++++++..+++++++++++++++
 72
    65
 73
     2
 40
80.0
 49
75.0
 49
-5.0
  0
LTYPE
  2
LONG5
 70
    64
  3
----------  --  ----------  --  
 72
    65
 73
     4
 40
60.0
 49
37.5
 49
-7.5
 49
7.5
 49
-7.5
  0
LTYPE
  2
dashed
 70
   64
  3
-------   -------------   ------
 72
   65
 73
    2
 40
7.5
 49
6
 49
-1.5
  0
LTYPE
  2
dashed_spaced
 70
   64
  3
----        --------        ----
 72
   65
 73
    2
 40
12
 49
6
 49
-6
  0
LTYPE
  2
long_dashed_dotted
 70
   64
  3
------------- --- --------------
 72
   65
 73
    4
 40
15.25
 49
12
 49
-1.5
 49
0.25
 49
-1.5
  0
LTYPE
  2
long_dashed_double-dotted
 70
   64
  3
----------- --- --- ------------
 72
   65
 73
    6
 40
17
 49
12
 49
-1.5
 49
0.25
 49
-1.5
 49
0.25
 49
-1.5
  0
LTYPE
  2
long_dashed_triplicate-dotted
 70
   64
  3
--------- --- --- --- ----------
 72
   65
 73
    8
 40
18.75
 49
12
 49
-1.5
 49
0.25
 49
-1.5
 49
0.25
 49
-1.5
 49
0.25
 49
-1.5
  0
LTYPE
  2
dotted
 70
   64
  3
   -       -       -       -    
 72
   65
 73
    2
 40
1.75
 49
0.25
 49
-1.5
  0
LTYPE
  2
chain
 70
   64
  3
-------------- -- --------------
 72
   65
 73
    4
 40
18.5
 49
12
 49
-1.5
 49
3.5
 49
-1.5
  0
LTYPE
  2
chain_double_dash
 70
   64
  3
------------ -- -- -------------
 72
   65
 73
    6
 40
23.5
 49
12
 49
-1.5
 49
3.5
 49
-1.5
 49
3.5
 49
-1.5
  0
LTYPE
  2
dashed_dotted
 70
   64
  3
-----------     -     ----------
 72
   65
 73
    4
 40
9.25
 49
6
 49
-1.5
 49
0.25
 49
-1.5
  0
LTYPE
  2
double-dashed_dotted
 70
   64
  3
------   -----------   -   -----
 72
   65
 73
    6
 40
16.75
 49
6
 49
-1.5
 49
6
 49
-1.5
 49
0.25
 49
-1.5
  0
LTYPE
  2
dashed_double-dotted
 70
   64
  3
---------    -    -    ---------
 72
   65
 73
    6
 40
11
 49
6
 49
-1.5
 49
0.25
 49
-1.5
 49
0.25
 49
-1.5
  0
LTYPE
  2
double-dashed_double-dotted
 70
   64
  3
-----   ---------   -   -   ----
 72
   65
 73
    8
 40
18.5
 49
6
 49
-1.5
 49
6
 49
-1.5
 49
0.25
 49
-1.5
 49
0.25
 49
-1.5
  0
LTYPE
  2
dashed_triplicate-dotted
 70
   64
  3
-------    -    -    -    ------
 72
   65
 73
    8
 40
12.75
 49
6
 49
-1.5
 49
0.25
 49
-1.5
 49
0.25
 49
-1.5
 49
0.25
 49
-1.5
  0
LTYPE
  2
double-dashed_triplicate-dotted
 70
   64
  3
-----  ---------  -  -  -  -----
 72
   65
 73
   10
 40
20.25
 49
6
 49
-1.5
 49
6
 49
-1.5
 49
0.25
 49
-1.5
 49
0.25
 49
-1.5
 49
0.25
 49
-1.5
  0
LTYPE
  2
undefined
 70
   64
  3
--------------------------------
 72
   65
 73
    0
 40
0
  0
ENDTAB
  0
TABLE
  2
STYLE
  5
3
100
AcDbSymbolTable
 70
     1
  0
STYLE
  5
10
100
AcDbSymbolTableRecord
100
AcDbTextStyleTableRecord
  2
STANDARD
 70
     0
 40
0.0
 41
1.0
 50
0.0
 71
     0
 42
0.2
  3
txt
  4
bigfont.shx
  0
STYLE
  5
26
100
AcDbSymbolTableRecord
100
AcDbTextStyleTableRecord
  2
TATEGAKI
 70
    68
 40
0.0
 41
1.0
 50
0.0
 71
     0
 42
1.0
  3
txt
  4
bigfont.shx
  0
ENDTAB
  0
TABLE
  2
LAYER
 70
    8
  0
LAYER
  2
_0-0_
 70
   64
 62
    7
  6
CONTINUOUS
  0
LAYER
  2
_0-1_
 70
   64
 62
    7
  6
CONTINUOUS
  0
LAYER
  2
_0-2_
 70
   64
 62
    7
  6
CONTINUOUS
  0
LAYER
  2
_0-3_
 70
   64
 62
    7
  6
CONTINUOUS
  0
LAYER
  2
_0-4_
 70
   64
 62
    7
  6
CONTINUOUS
  0
LAYER
  2
_0-5_
 70
   64
 62
    7
  6
CONTINUOUS
  0
LAYER
  2
_1-5_
 70
   64
 62
    7
  6
CONTINUOUS
  0
LAYER
  2
ADD_LINE
 70
   64
 62
    7
  6
CONTINUOUS
  0
ENDTAB
  0
ENDSEC
  0
SECTION
  2
BLOCKS
  0
ENDSEC
  0
SECTION
  2
ENTITIES
  0
LINE
  8
_0-4_
  6
CONTINUOUS
 62
    3
 10
0
 20
29700
 11
8000
 21
29700
  0
LINE
  8
_0-1_
  6
CONTINUOUS
 62
    4
 10
2842.8024203082541
 20
22761.351480622136
 11
4942.8024203082541
 21
22761.351480622136
  0
LINE
  8
_0-1_
  6
CONTINUOUS
 62
    4
 10
4942.8024203082541
 20
24861.351480622136
 11
2842.8024203082541
 21
24861.351480622136
  0
LINE
  8
_0-1_
  6
CONTINUOUS
 62
    4
 10
2842.8024203082541
 20
22761.351480622136
 11
4942.8024203082541
 21
24861.351480622136
  0
LINE
  8
_0-1_
  6
CONTINUOUS
 62
    4
 10
4942.8024203082541
 20
22761.351480622136
 11
2842.8024203082541
 21
24861.351480622136
  0
LINE
  8
_0-1_
  6
CONTINUOUS
 62
    4
 10
2842.8024203082541
 20
24641.351480622136
 11
0
 21
23504.230512498834
  0
LINE
  8
_0-1_
  6
CONTINUOUS
 62
    4
 10
4942.8024203082541
 20
24861.351480622136
 11
4942.8024203082541
 21
19700
  0
LINE
  8
_0-1_
  6
CONTINUOUS
 62
    4
 10
2842.8024203082541
 20
24861.351480622136
 11
2842.8024203082541
 21
19700
  0
LINE
  8
_0-2_
  6
DASHED1
 62
    7
 10
4962.8024203082532
 20
24861.351480622136
 11
4962.8024203082532
 21
19700
  0
LINE
  8
_0-1_
  6
CONTINUOUS
 62
    4
 10
5622.8024203082523
 20
24046.681145906332
 11
5302.8024203082541
 21
24046.681145906332
  0
LINE
  8
_0-1_
  6
CONTINUOUS
 62
    4
 10
5622.8024203082523
 20
23846.681145906332
 11
5302.8024203082541
 21
23846.681145906332
  0
LINE
  8
_0-1_
  6
CONTINUOUS
 62
    4
 10
5622.8024203082523
 20
24046.681145906332
 11
5302.8024203082541
 21
23846.681145906332
  0
LINE
  8
_0-1_
  6
CONTINUOUS
 62
    4
 10
5302.8024203082541
 20
24046.681145906332
 11
5622.8024203082523
 21
23846.681145906332
  0
LINE
  8
_0-1_
  6
CONTINUOUS
 62
    4
 10
5302.8024203082541
 20
24946.681145906339
 11
5622.8024203082523
 21
24946.681145906339
  0
LINE
  8
_0-1_
  6
CONTINUOUS
 62
    4
 10
5302.8024203082541
 20
24046.681145906332
 11
5622.8024203082523
 21
24946.681145906339
  0
LINE
  8
_0-1_
  6
CONTINUOUS
 62
    4
 10
5622.8024203082523
 20
23846.681145906332
 11
5622.8024203082523
 21
24946.681145906339
  0
LINE
  8
_0-5_
  6
CONTINUOUS
 62
    7
 10
5622.8024203082523
 20
25006.681145906339
 11
5622.8024203082523
 21
24286.681145906339
  0
LINE
  8
_0-5_
  6
CONTINUOUS
 62
    7
 10
5622.8024203082523
 20
24286.681145906339
 11
5622.8024203082523
 21
24046.681145906332
  0
LINE
  8
_0-5_
  6
CONTINUOUS
 62
    7
 10
5622.8024203082523
 20
24286.681145906339
 11
5982.8024203082523
 21
24286.681145906339
  0
LINE
  8
_0-5_
  6
CONTINUOUS
 62
    7
 10
5982.8024203082523
 20
24286.681145906339
 11
5982.8024203082523
 21
24766.681145906339
  0
LINE
  8
_0-5_
  6
DASHED1
 62
    4
 10
5622.8024203082523
 20
24286.681145906339
 11
5642.8024203082541
 21
24286.681145906339
  0
LINE
  8
_0-5_
  6
DASHED1
 62
    4
 10
5642.8024203082541
 20
24286.681145906339
 11
5642.8024203082541
 21
24426.681145906339
  0
LINE
  8
_0-5_
  6
DASHED1
 62
    4
 10
5642.8024203082541
 20
24426.681145906339
 11
5622.8024203082523
 21
24426.681145906339
  0
LINE
  8
_0-5_
  6
DASHED1
 62
    4
 10
5622.8024203082523
 20
24293.544060916494
 11
5642.8024203082541
 21
24313.544060916494
  0
LINE
  8
_0-5_
  6
DASHED1
 62
    4
 10
5622.8024203082523
 20
24321.828332163954
 11
5642.8024203082541
 21
24341.828332163954
  0
LINE
  8
_0-5_
  6
DASHED1
 62
    4
 10
5622.8024203082523
 20
24350.112603411413
 11
5642.8024203082541
 21
24370.11260341141
  0
LINE
  8
_0-5_
  6
DASHED1
 62
    4
 10
5622.8024203082523
 20
24378.39687465888
 11
5642.8024203082541
 21
24398.39687465888
  0
LINE
  8
_0-5_
  6
DASHED1
 62
    4
 10
5622.8024203082523
 20
24406.681145906339
 11
5642.8024203082541
 21
24426.681145906339
  0
LINE
  8
_0-5_
  6
DASHED1
 62
    4
 10
5642.8024203082541
 20
24426.681145906339
 11
5642.8024203082541
 21
24686.681145906339
  0
LINE
  8
_0-5_
  6
DASHED1
 62
    4
 10
5642.8024203082541
 20
24686.681145906339
 11
5982.8024203082523
 21
24686.681145906339
  0
LINE
  8
_0-5_
  6
DASHED1
 62
    4
 10
5699.4690869749211
 20
24286.681145906339
 11
5699.4690869749211
 21
24686.681145906339
  0
LINE
  8
_0-5_
  6
DASHED1
 62
    4
 10
5756.1357536415871
 20
24286.681145906339
 11
5756.1357536415871
 21
24686.681145906339
  0
LINE
  8
_0-5_
  6
DASHED1
 62
    4
 10
5812.8024203082532
 20
24286.681145906339
 11
5812.8024203082532
 21
24686.681145906339
  0
LINE
  8
_0-5_
  6
DASHED1
 62
    4
 10
5869.469086974922
 20
24286.681145906339
 11
5869.469086974922
 21
24686.681145906339
  0
LINE
  8
_0-5_
  6
DASHED1
 62
    4
 10
5926.135753641589
 20
24286.681145906339
 11
5926.135753641589
 21
24686.681145906339
  0
LINE
  8
_0-5_
  6
CONTINUOUS
 62
    7
 10
5982.8024203082523
 20
24766.681145906339
 11
5972.8024203082523
 21
24766.681145906339
  0
LINE
  8
_0-5_
  6
CONTINUOUS
 62
    7
 10
5972.8024203082523
 20
24766.681145906339
 11
5972.8024203082523
 21
24686.681145906339
  0
LINE
  8
_0-5_
  6
CONTINUOUS
 62
    7
 10
5622.8024203082523
 20
24046.681145906332
 11
5632.8024203082523
 21
24046.681145906332
  0
LINE
  8
_0-5_
  6
CONTINUOUS
 62
    7
 10
5632.8024203082523
 20
24046.681145906332
 11
5632.8024203082523
 21
24126.681145906332
  0
LINE
  8
_0-5_
  6
CONTINUOUS
 62
    7
 10
5622.8024203082523
 20
25006.681145906339
 11
5632.8024203082523
 21
25006.681145906339
  0
LINE
  8
_0-5_
  6
CONTINUOUS
 62
    7
 10
5632.8024203082523
 20
25006.681145906339
 11
5632.8024203082523
 21
24926.681145906339
  0
LINE
  8
_0-1_
  6
CONTINUOUS
 62
    4
 10
5982.8024203082523
 20
23866.681145906332
 11
5982.8024203082523
 21
26866.681145906339
  0
LINE
  8
_0-1_
  6
CONTINUOUS
 62
    4
 10
6462.8024203082532
 20
23866.681145906332
 11
5982.8024203082523
 21
23866.681145906332
  0
LINE
  8
_0-1_
  6
CONTINUOUS
 62
    4
 10
5982.8024203082523
 20
26866.681145906339
 11
6462.8024203082532
 21
26866.681145906339
  0
LINE
  8
_0-1_
  6
CONTINUOUS
 62
    4
 10
6462.8024203082532
 20
26866.681145906339
 11
6462.8024203082532
 21
23866.681145906332
  0
LINE
  8
_0-1_
  6
CONTINUOUS
 62
    4
 10
6462.8024203082532
 20
26866.681145906339
 11
5982.8024203082523
 21
23866.681145906332
  0
LINE
  8
_0-3_
  6
CONTINUOUS
 62
    2
 10
6782.8024203082523
 20
23978.681145906332
 11
6722.8024203082523
 21
23978.681145906332
  0
LINE
  8
_0-3_
  6
CONTINUOUS
 62
    2
 10
6722.8024203082523
 20
23458.681145906332
 11
6462.8024203082505
 21
23458.681145906332
  0
LINE
  8
_0-3_
  6
CONTINUOUS
 62
    2
 10
6722.8024203082523
 20
23978.681145906332
 11
6722.8024203082523
 21
23458.681145906332
  0
LINE
  8
_0-3_
  6
CONTINUOUS
 62
    2
 10
6462.8024203082532
 20
27058.681145906336
 11
6782.8024203082496
 21
27058.681145906336
  0
LINE
  8
_0-3_
  6
CONTINUOUS
 62
    2
 10
6462.8024203082505
 20
23458.681145906332
 11
6462.8024203082532
 21
27058.681145906336
  0
LINE
  8
_0-1_
  6
CONTINUOUS
 62
    4
 10
3392.8024203082573
 20
24861.351480622136
 11
5982.8024203082523
 21
25897.351480622136
  0
LINE
  8
_0-3_
  6
CONTINUOUS
 62
    2
 10
6782.8024203082496
 20
27058.681145906336
 11
6782.8024203082523
 21
23978.681145906332
  0
LINE
  8
_0-1_
  6
CONTINUOUS
 62
    4
 10
0
 20
24732.048088525495
 11
6693.6686579832667
 21
27409.515551718796
  0
LINE
  8
_0-1_
  6
CONTINUOUS
 62
    4
 10
6782.8024203082496
 20
27186.681145906339
 11
6693.6686579832667
 21
27409.515551718796
  0
LINE
  8
_0-1_
  6
CONTINUOUS
 62
    4
 10
0
 20
24473.560177783045
 11
6782.8024203082496
 21
27186.681145906339
  0
LINE
  8
_0-2_
  6
DASHED1
 62
    7
 10
0
 20
24753.588747754045
 11
6686.2408444561852
 21
27428.08508553651
  0
LINE
  8
_0-3_
  6
DASHED3
 62
    4
 10
0
 20
24861.292043896734
 11
6649.1017768207794
 21
27520.932754625021
  0
LINE
  8
_0-3_
  6
CONTINUOUS
 62
    2
 10
0
 20
24968.995340039437
 11
6611.9627091853654
 21
27613.780423713557
  0
LINE
  8
_0-3_
  6
CONTINUOUS
 62
    2
 10
6611.9627091853654
 20
27613.780423713557
 11
6693.6686579832722
 21
27409.515551718796
  0
LINE
  8
_0-1_
  6
CONTINUOUS
 62
    4
 10
5031.0978328399524
 20
26981.434473175388
 11
4919.6806299337222
 21
27259.977480440968
  0
LINE
  8
_0-1_
  6
CONTINUOUS
 62
    4
 10
4919.6806299337222
 20
27259.977480440968
 11
6590.9386735271883
 21
27928.48069787836
  0
LINE
  8
_0-1_
  6
CONTINUOUS
 62
    4
 10
6590.9386735271883
 20
27928.48069787836
 11
5031.0978328399524
 21
26981.434473175388
  0
LINE
  8
_0-1_
  6
CONTINUOUS
 62
    4
 10
6702.3558764334184
 20
27649.937690612784
 11
6590.9386735271883
 21
27928.48069787836
  0
LINE
  8
_0-1_
  6
CONTINUOUS
 62
    4
 10
6702.3558764334184
 20
27649.937690612784
 11
6611.9627091853654
 21
27613.780423713557
  0
LINE
  8
_0-4_
  6
CONTINUOUS
 62
    3
 10
8000
 20
19700
 11
8000
 21
29700
  0
LINE
  8
_0-4_
  6
CONTINUOUS
 62
    3
 10
0
 20
19700
 11
0
 21
29700
  0
LINE
  8
_0-3_
  6
CONTINUOUS
 62
    2
 10
5622.8024203082523
 20
23846.681145906332
 11
5622.8024203082523
 21
19700
  0
LINE
  8
_0-1_
  6
CONTINUOUS
 62
    4
 10
5302.8024203082541
 20
24946.681145906339
 11
5302.8024203082541
 21
19700
  0
LINE
  8
_0-4_
  6
CONTINUOUS
 62
    3
 10
0
 20
29700
 11
8000
 21
29700
  0
LINE
  8
_0-4_
  6
CONTINUOUS
 62
    3
 10
0
 20
29700
 11
8000
 21
29700
  0
LINE
  8
_0-4_
  6
CONTINUOUS
 62
    3
 10
0
 20
29400
 11
8000
 21
29400
  0
LINE
  8
_0-4_
  6
CONTINUOUS
 62
    3
 10
2000
 20
29700
 11
2000
 21
29400
  0
LINE
  8
_0-4_
  6
CONTINUOUS
 62
    3
 10
4000
 20
29700
 11
4000
 21
29400
  0
LINE
  8
_0-0_
  6
CENTER1
 62
    4
 10
3892.8024203082541
 20
19700
 11
3892.8024203082541
 21
29400
  0
TEXT
  8
_0-1_
 62
    4
 10
457.36024140035454
 20
29450
 40
200
 41
1
 50
0
  1
ファイバー
  0
LINE
  8
_0-4_
  6
CONTINUOUS
 62
    3
 10
0
 20
19700
 11
8000
 21
19700
  0
LINE
  8
_0-4_
  6
CONTINUOUS
 62
    3
 10
0
 20
19700
 11
8000
 21
19700
  0
LINE
  8
_0-4_
  6
CONTINUOUS
 62
    3
 10
0
 20
19700
 11
8000
 21
19700
  0
TEXT
  8
_0-1_
 62
    4
 10
7233.8546117923979
 20
29450
 40
200
 41
1
 50
0
  1
S=1/5
  0
LINE
  8
_0-4_
  6
CONTINUOUS
 62
    3
 10
5005.1004854951689
 20
26992.576193466015
 11
4540.8621400525362
 21
26806.880855288968
  0
LINE
  8
_0-4_
  6
CONTINUOUS
 62
    3
 10
4540.8621400525362
 20
26806.880855288968
 11
4548.2899535796205
 21
26788.311321471265
  0
LINE
  8
_0-4_
  6
CONTINUOUS
 62
    3
 10
4548.2899535796205
 20
26788.311321471265
 11
4733.9852917566732
 21
26862.589456742087
  0
LINE
  8
_0-4_
  6
CONTINUOUS
 62
    3
 10
4893.6832825889378
 20
27271.119200731595
 11
5005.1004854951689
 21
26992.576193466015
  0
LINE
  8
_0-4_
  6
CONTINUOUS
 62
    3
 10
6802.8024203082514
 20
26043.611807548124
 11
6782.8024203082496
 21
26043.611807548124
  0
LINE
  8
_0-4_
  6
CONTINUOUS
 62
    3
 10
6782.8024203082496
 20
26043.611807548124
 11
6782.8024203082496
 21
26243.611807548124
  0
LINE
  8
_0-4_
  6
CONTINUOUS
 62
    3
 10
6802.8024203082514
 20
28034.766855819311
 11
4893.6832825889378
 21
27271.119200731595
  0
LINE
  8
_0-4_
  6
CONTINUOUS
 62
    3
 10
6802.8024203082514
 20
28034.766855819311
 11
6802.8024203082514
 21
26043.611807548124
  0
TEXT
  8
_0-1_
 62
    4
 10
2457.3602414003544
 20
29450
 40
200
 41
1
 50
0
  1
標準納まり
  0
LINE
  8
_1-5_
  6
CONTINUOUS
 62
    7
 10
5622.8024203082523
 20
23846.681145906332
 11
6560.9590136294282
 21
22221.74626081832
  0
LINE
  8
_1-5_
  6
CONTINUOUS
 62
    7
 10
6560.9590136294282
 20
22221.74626081832
 11
6760.9590136294282
 21
22221.74626081832
  0
SOLID
  8
_1-5_
  6
CONTINUOUS
 62
    7
 10
5622.8024203082523
 20
23846.681145906332
 11
5692.0017412814732
 21
23771.163338660033
 12
5672.8024203082523
 22
23760.078605527888
 13
5672.8024203082523
 23
23760.078605527888
  0
LINE
  8
_1-5_
  6
CONTINUOUS
 62
    7
 10
5622.8024203082523
 20
23846.681145906332
 11
5692.0017412814732
 21
23771.163338660033
  0
LINE
  8
_1-5_
  6
CONTINUOUS
 62
    7
 10
5692.0017412814732
 20
23771.163338660033
 11
5672.8024203082523
 21
23760.078605527888
  0
LINE
  8
_1-5_
  6
CONTINUOUS
 62
    7
 10
5672.8024203082523
 20
23760.078605527888
 11
5622.8024203082523
 21
23846.681145906332
  0
TEXT
  8
_1-5_
 62
    5
 10
6760.9590136294282
 20
22121.74626081832
 40
200
 41
1
 50
0
  1
コーキング
  0
LINE
  8
_1-5_
  6
CONTINUOUS
 62
    7
 10
5756.1357536415871
 20
24286.681145906339
 11
6578.39113543445
 21
22862.493047844153
  0
LINE
  8
_1-5_
  6
CONTINUOUS
 62
    7
 10
6578.39113543445
 20
22862.493047844153
 11
6778.39113543445
 21
22862.493047844153
  0
SOLID
  8
_1-5_
  6
CONTINUOUS
 62
    7
 10
5756.1357536415871
 20
24286.681145906339
 11
5825.3350746148071
 21
24211.163338660041
 12
5806.1357536415899
 22
24200.078605527895
 13
5806.1357536415899
 23
24200.078605527895
  0
LINE
  8
_1-5_
  6
CONTINUOUS
 62
    7
 10
5756.1357536415871
 20
24286.681145906339
 11
5825.3350746148071
 21
24211.163338660041
  0
LINE
  8
_1-5_
  6
CONTINUOUS
 62
    7
 10
5825.3350746148071
 20
24211.163338660041
 11
5806.1357536415899
 21
24200.078605527895
  0
LINE
  8
_1-5_
  6
CONTINUOUS
 62
    7
 10
5806.1357536415899
 20
24200.078605527895
 11
5756.1357536415871
 21
24286.681145906339
  0
TEXT
  8
_1-5_
 62
    5
 10
6778.39113543445
 20
22762.493047844153
 40
200
 41
1
 50
0
  1
ファイバー
  0
ENDSEC
  0
EOF
