  0
SECTION
  2
HEADER
  9
$ACADVER
  1
AC1009
  9
$INSBASE
 10
0
 20
0
 30
0
  9
$EXTMIN
 10
0
 20
0
  9
$EXTMAX
 10
42000
 20
29700
  9
$LIMMIN
 10
0
 20
0
  9
$LIMMAX
 10
42000
 20
29700
  9
$LTSCALE
 40
100
  0
ENDSEC
  0
SECTION
  2
TABLES
  0
TABLE
  2
LTYPE
 70
     9
  0
LTYPE
  2
CONTINUOUS
 70
    64
  3
実線
 72
    65
 73
     0
 40
0.0
  0
LTYPE
  2
DASHED1
 70
    64
  3
--  --  --  --  --  --  --  --  
 72
    65
 73
     2
 40
2.5
 49
1.25
 49
-1.25
  0
LTYPE
  2
DASHED2
 70
    64
  3
----    ----    ----    ----    
 72
    65
 73
     2
 40
5.0
 49
2.5
 49
-2.5
  0
LTYPE
  2
DASHED3
 70
    64
  3
------  ------  ------  ------  
 72
    65
 73
     2
 40
5.0
 49
3.75
 49
-1.25
  0
LTYPE
  2
CENTER1
 70
    64
  3
----- - ----- - ----- - ----- - 
 72
    65
 73
     4
 40
10.0
 49
6.25
 49
-1.25
 49
1.25
 49
-1.25
  0
LTYPE
  2
CENTER2
 70
    64
  3
----------  --  ----------  --  
 72
    65
 73
     4
 40
20.0
 49
12.5
 49
-2.5
 49
2.5
 49
-2.5
  0
LTYPE
  2
PHANTOM1
 70
    64
  3
--- - - --- - - --- - - --- - - 
 72
    65
 73
     6
 40
10.0
 49
3.25
 49
-1.25
 49
1.25
 49
-1.25
 49
1.25
 49
-1.25
  0
LTYPE
  2
PHANTOM2
 70
    64
  3
--------  -  -  --------  -  -  
 72
    65
 73
     6
 40
20.0
 49
10.0
 49
-2.5
 49
1.25
 49
-2.5
 49
1.25
 49
-2.5
  0
LTYPE
  2
DOT
 70
    64
  3
-   -   -   -   -   -   -   -   
 72
    65
 73
     2
 40
2.5
 49
0.625
 49
-1.875
  0
LTYPE
  2
DUMMY
 70
    64
  3
ダミー
 72
    65
 73
     0
 40
0.0
  0
LTYPE
  2
RAND1
 70
    64
  3
ランダム線1
 72
    65
 73
     4
 40
10.0
 49
1.0
 49
-2.0
 49
3.0
 49
-4.0
  0
LTYPE
  2
RAND2
 70
    64
  3
ランダム線2
 72
    65
 73
     4
 40
14.0
 49
2.0
 49
-3.0
 49
4.0
 49
-5.0
  0
LTYPE
  2
RAND3
 70
    64
  3
ランダム線3
 72
    65
 73
     4
 40
18.0
 49
3.0
 49
-4.0
 49
5.0
 49
-6.0
  0
LTYPE
  2
RAND4
 70
    64
  3
ランダム線4
 72
    65
 73
     4
 40
22.0
 49
4.0
 49
-5.0
 49
6.0
 49
-7.0
  0
LTYPE
  2
RAND5
 70
    64
  3
ランダム線5
 72
    65
 73
     4
 40
26.0
 49
5.0
 49
-6.0
 49
7.0
 49
-8.0
  0
LTYPE
  2
LONG1
 70
    64
  3
----------  --  ----------  --  
 72
    65
 73
     4
 40
40.0
 49
32.5
 49
-2.5
 49
2.5
 49
-2.5
  0
LTYPE
  2
LONG2
 70
    64
  3
--------  -  -  --------  -  -  
 72
    65
 73
     6
 40
40.0
 49
30.0
 49
-2.5
 49
1.25
 49
-2.5
 49
1.25
 49
-2.5
  0
LTYPE
  2
LONG3
 70
    64
  3
+++++++++++++++..+++++++++++++++
 72
    65
 73
     2
 40
40.0
 49
37.5
 49
-2.5
  0
LTYPE
  2
LONG4
 70
    64
  3
+++++++++++++++..+++++++++++++++
 72
    65
 73
     2
 40
80.0
 49
75.0
 49
-5.0
  0
LTYPE
  2
LONG5
 70
    64
  3
----------  --  ----------  --  
 72
    65
 73
     4
 40
60.0
 49
37.5
 49
-7.5
 49
7.5
 49
-7.5
  0
LTYPE
  2
dashed
 70
   64
  3
-------   -------------   ------
 72
   65
 73
    2
 40
7.5
 49
6
 49
-1.5
  0
LTYPE
  2
dashed_spaced
 70
   64
  3
----        --------        ----
 72
   65
 73
    2
 40
12
 49
6
 49
-6
  0
LTYPE
  2
long_dashed_dotted
 70
   64
  3
------------- --- --------------
 72
   65
 73
    4
 40
15.25
 49
12
 49
-1.5
 49
0.25
 49
-1.5
  0
LTYPE
  2
long_dashed_double-dotted
 70
   64
  3
----------- --- --- ------------
 72
   65
 73
    6
 40
17
 49
12
 49
-1.5
 49
0.25
 49
-1.5
 49
0.25
 49
-1.5
  0
LTYPE
  2
long_dashed_triplicate-dotted
 70
   64
  3
--------- --- --- --- ----------
 72
   65
 73
    8
 40
18.75
 49
12
 49
-1.5
 49
0.25
 49
-1.5
 49
0.25
 49
-1.5
 49
0.25
 49
-1.5
  0
LTYPE
  2
dotted
 70
   64
  3
   -       -       -       -    
 72
   65
 73
    2
 40
1.75
 49
0.25
 49
-1.5
  0
LTYPE
  2
chain
 70
   64
  3
-------------- -- --------------
 72
   65
 73
    4
 40
18.5
 49
12
 49
-1.5
 49
3.5
 49
-1.5
  0
LTYPE
  2
chain_double_dash
 70
   64
  3
------------ -- -- -------------
 72
   65
 73
    6
 40
23.5
 49
12
 49
-1.5
 49
3.5
 49
-1.5
 49
3.5
 49
-1.5
  0
LTYPE
  2
dashed_dotted
 70
   64
  3
-----------     -     ----------
 72
   65
 73
    4
 40
9.25
 49
6
 49
-1.5
 49
0.25
 49
-1.5
  0
LTYPE
  2
double-dashed_dotted
 70
   64
  3
------   -----------   -   -----
 72
   65
 73
    6
 40
16.75
 49
6
 49
-1.5
 49
6
 49
-1.5
 49
0.25
 49
-1.5
  0
LTYPE
  2
dashed_double-dotted
 70
   64
  3
---------    -    -    ---------
 72
   65
 73
    6
 40
11
 49
6
 49
-1.5
 49
0.25
 49
-1.5
 49
0.25
 49
-1.5
  0
LTYPE
  2
double-dashed_double-dotted
 70
   64
  3
-----   ---------   -   -   ----
 72
   65
 73
    8
 40
18.5
 49
6
 49
-1.5
 49
6
 49
-1.5
 49
0.25
 49
-1.5
 49
0.25
 49
-1.5
  0
LTYPE
  2
dashed_triplicate-dotted
 70
   64
  3
-------    -    -    -    ------
 72
   65
 73
    8
 40
12.75
 49
6
 49
-1.5
 49
0.25
 49
-1.5
 49
0.25
 49
-1.5
 49
0.25
 49
-1.5
  0
LTYPE
  2
double-dashed_triplicate-dotted
 70
   64
  3
-----  ---------  -  -  -  -----
 72
   65
 73
   10
 40
20.25
 49
6
 49
-1.5
 49
6
 49
-1.5
 49
0.25
 49
-1.5
 49
0.25
 49
-1.5
 49
0.25
 49
-1.5
  0
LTYPE
  2
undefined
 70
   64
  3
--------------------------------
 72
   65
 73
    0
 40
0
  0
ENDTAB
  0
TABLE
  2
STYLE
  5
3
100
AcDbSymbolTable
 70
     1
  0
STYLE
  5
10
100
AcDbSymbolTableRecord
100
AcDbTextStyleTableRecord
  2
STANDARD
 70
     0
 40
0.0
 41
1.0
 50
0.0
 71
     0
 42
0.2
  3
txt
  4
bigfont.shx
  0
STYLE
  5
26
100
AcDbSymbolTableRecord
100
AcDbTextStyleTableRecord
  2
TATEGAKI
 70
    68
 40
0.0
 41
1.0
 50
0.0
 71
     0
 42
1.0
  3
txt
  4
bigfont.shx
  0
ENDTAB
  0
TABLE
  2
LAYER
 70
    8
  0
LAYER
  2
_0-0_
 70
   64
 62
    7
  6
CONTINUOUS
  0
LAYER
  2
_0-1_
 70
   64
 62
    7
  6
CONTINUOUS
  0
LAYER
  2
_0-2_
 70
   64
 62
    7
  6
CONTINUOUS
  0
LAYER
  2
_0-3_
 70
   64
 62
    7
  6
CONTINUOUS
  0
LAYER
  2
_0-4_
 70
   64
 62
    7
  6
CONTINUOUS
  0
LAYER
  2
_0-5_
 70
   64
 62
    7
  6
CONTINUOUS
  0
LAYER
  2
_1-5_
 70
   64
 62
    7
  6
CONTINUOUS
  0
LAYER
  2
ADD_LINE
 70
   64
 62
    7
  6
CONTINUOUS
  0
ENDTAB
  0
ENDSEC
  0
SECTION
  2
BLOCKS
  0
ENDSEC
  0
SECTION
  2
ENTITIES
  0
LINE
  8
_0-1_
  6
CONTINUOUS
 62
    4
 10
3969.6849575981901
 20
19700
 11
3969.6849575981901
 21
26235.47142744916
  0
LINE
  8
_0-1_
  6
CONTINUOUS
 62
    4
 10
6069.6849575981933
 20
19700
 11
6069.6849575981933
 21
26235.47142744916
  0
LINE
  8
_0-1_
  6
CONTINUOUS
 62
    4
 10
6069.6849575981933
 20
25635.47142744916
 11
3969.6849575981901
 21
25635.47142744916
  0
LINE
  8
_0-1_
  6
CONTINUOUS
 62
    4
 10
3969.6849575981901
 20
25635.47142744916
 11
6069.6849575981933
 21
26235.47142744916
  0
LINE
  8
_0-4_
  6
CONTINUOUS
 62
    3
 10
5009.6849575981933
 20
26875.471427449156
 11
3949.6849575981914
 21
26875.471427449156
  0
LINE
  8
_0-1_
  6
CONTINUOUS
 62
    4
 10
6489.6849575981914
 20
19700
 11
6489.6849575981914
 21
26235.47142744916
  0
LINE
  8
_0-1_
  6
CONTINUOUS
 62
    4
 10
6069.6849575981933
 20
26235.47142744916
 11
6489.6849575981914
 21
26235.47142744916
  0
LINE
  8
_0-1_
  6
CONTINUOUS
 62
    4
 10
6069.6849575981933
 20
26475.471427449156
 11
6489.6849575981914
 21
26475.471427449156
  0
LINE
  8
_0-1_
  6
CONTINUOUS
 62
    4
 10
6489.6849575981914
 20
26475.471427449156
 11
6489.6849575981914
 21
26235.47142744916
  0
LINE
  8
_0-3_
  6
CONTINUOUS
 62
    2
 10
6549.6849575981914
 20
19700
 11
6549.6849575981914
 21
26535.47142744916
  0
LINE
  8
_0-3_
  6
CONTINUOUS
 62
    2
 10
6549.6849575981914
 20
26535.47142744916
 11
3949.6849575981914
 21
26535.47142744916
  0
ARC
  8
_0-4_
  6
CONTINUOUS
 62
    3
 10
6449.6849575981914
 20
26575.471427449156
 40
200
 50
0
 51
90
  0
LINE
  8
_0-4_
  6
CONTINUOUS
 62
    3
 10
5009.6849575981933
 20
26875.471427449156
 11
6449.6849575981914
 21
26775.471427449156
  0
LINE
  8
_0-4_
  6
CONTINUOUS
 62
    3
 10
6649.6849575981914
 20
25875.471427449167
 11
6649.6849575981914
 21
26575.471427449156
  0
LINE
  8
_0-1_
  6
CONTINUOUS
 62
    4
 10
6249.6849575981914
 20
19700
 11
6249.6849575981914
 21
26235.47142744916
  0
LINE
  8
_0-2_
  6
DASHED1
 62
    7
 10
3949.6849575981914
 20
19700
 11
3949.6849575981914
 21
26235.47142744916
  0
LINE
  8
_0-3_
  6
CONTINUOUS
 62
    2
 10
3949.6849575981914
 20
26535.47142744916
 11
3949.6849575981914
 21
26475.471427449156
  0
LINE
  8
_0-4_
  6
CONTINUOUS
 62
    3
 10
0
 20
19700
 11
0
 21
29700
  0
LINE
  8
_0-0_
  6
CENTER1
 62
    4
 10
5019.6849575981933
 20
29700
 11
5019.6849575981933
 21
19700
  0
LINE
  8
_0-1_
  6
CONTINUOUS
 62
    4
 10
3589.6849575981919
 20
19700
 11
3589.6849575981919
 21
25935.47142744916
  0
LINE
  8
_0-1_
  6
CONTINUOUS
 62
    4
 10
3269.6849575981901
 20
25935.47142744916
 11
3589.6849575981919
 21
25935.47142744916
  0
LINE
  8
_0-1_
  6
CONTINUOUS
 62
    4
 10
3269.6849575981901
 20
25035.471427449156
 11
3269.6849575981901
 21
25935.47142744916
  0
LINE
  8
_0-3_
  6
CONTINUOUS
 62
    2
 10
3269.6849575981928
 20
24835.471427449156
 11
3269.6849575981901
 21
19700
  0
LINE
  8
_0-3_
  6
CONTINUOUS
 62
    2
 10
3269.6849575981901
 20
24835.471427449156
 11
3589.6849575981919
 21
24835.471427449156
  0
LINE
  8
_0-1_
  6
CONTINUOUS
 62
    4
 10
3269.6849575981901
 20
25035.471427449156
 11
3269.6849575981928
 21
24835.471427449156
  0
LINE
  8
_0-1_
  6
CONTINUOUS
 62
    4
 10
3589.6849575981919
 20
25935.47142744916
 11
3269.6849575981901
 21
25035.471427449156
  0
LINE
  8
_0-1_
  6
CONTINUOUS
 62
    4
 10
3269.6849575981901
 20
25035.471427449156
 11
3589.6849575981946
 21
25035.471427449156
  0
LINE
  8
_0-1_
  6
CONTINUOUS
 62
    4
 10
3269.6849575981928
 20
24835.471427449156
 11
3589.6849575981946
 21
25035.471427449156
  0
LINE
  8
_0-1_
  6
CONTINUOUS
 62
    4
 10
3269.6849575981901
 20
25035.471427449156
 11
3589.6849575981919
 21
24835.471427449156
  0
LINE
  8
_0-3_
  6
CONTINUOUS
 62
    2
 10
2549.6849575981942
 20
24995.471427449156
 11
2609.6849575981933
 21
24935.471427449156
  0
LINE
  8
_0-3_
  6
CONTINUOUS
 62
    2
 10
2869.6849575981928
 20
24935.471427449156
 11
2609.6849575981933
 21
24935.471427449156
  0
LINE
  8
_0-3_
  6
CONTINUOUS
 62
    2
 10
2869.6849575981901
 20
26235.47142744916
 11
2869.6849575981928
 21
24935.471427449156
  0
LINE
  8
_0-1_
  6
CONTINUOUS
 62
    4
 10
2549.6849575981914
 20
26475.471427449156
 11
2549.6849575981914
 21
26235.47142744916
  0
LINE
  8
_0-1_
  6
CONTINUOUS
 62
    4
 10
2549.6849575981914
 20
26235.47142744916
 11
6069.6849575981933
 21
26235.47142744916
  0
LINE
  8
_0-1_
  6
CONTINUOUS
 62
    4
 10
2549.6849575981914
 20
26475.471427449156
 11
6069.6849575981933
 21
26475.471427449156
  0
ARC
  8
_0-4_
  6
CONTINUOUS
 62
    3
 10
2649.6849575981914
 20
26575.471427449156
 40
200
 50
90
 51
180
  0
LINE
  8
_0-4_
  6
CONTINUOUS
 62
    3
 10
3949.6849575981914
 20
26875.471427449156
 11
2649.6849575981914
 21
26775.471427449156
  0
LINE
  8
_0-4_
  6
CONTINUOUS
 62
    3
 10
2449.6849575981914
 20
25875.471427449156
 11
2449.6849575981914
 21
26575.471427449156
  0
LINE
  8
_0-3_
  6
CONTINUOUS
 62
    2
 10
2549.6849575981942
 20
24995.471427449156
 11
2549.6849575981914
 21
26235.47142744916
  0
LINE
  8
_0-3_
  6
CONTINUOUS
 62
    2
 10
2549.6849575981914
 20
26235.47142744916
 11
2869.6849575981901
 21
26235.47142744916
  0
LINE
  8
_0-5_
  6
CONTINUOUS
 62
    7
 10
3269.6849575981901
 20
25935.47142744916
 11
2869.6849575981901
 21
25935.47142744916
  0
LINE
  8
_0-5_
  6
CONTINUOUS
 62
    7
 10
2869.6849575981901
 20
25935.47142744916
 11
2869.6849575981901
 21
25035.471427449156
  0
LINE
  8
_0-5_
  6
CONTINUOUS
 62
    7
 10
2869.6849575981901
 20
25035.471427449156
 11
3269.6849575981901
 21
25035.471427449156
  0
LINE
  8
_0-5_
  6
CONTINUOUS
 62
    7
 10
3269.6849575981901
 20
25035.471427449156
 11
3269.6849575981901
 21
25935.47142744916
  0
LINE
  8
_0-5_
  6
CONTINUOUS
 62
    7
 10
2929.6849575981896
 20
25935.47142744916
 11
2929.6849575981896
 21
25035.471427449156
  0
LINE
  8
_0-5_
  6
CONTINUOUS
 62
    7
 10
3209.6849575981905
 20
25035.471427449156
 11
3209.6849575981905
 21
25935.47142744916
  0
LINE
  8
_0-5_
  6
DASHED1
 62
    4
 10
2929.6849575981978
 20
25345.471427449156
 11
3209.6849575981992
 21
25345.471427449156
  0
LINE
  8
_0-5_
  6
DASHED1
 62
    4
 10
2929.6849575981896
 20
25625.471427449156
 11
3209.6849575981905
 21
25625.471427449156
  0
LINE
  8
_0-5_
  6
DASHED1
 62
    4
 10
2976.351624264862
 20
25345.471427449156
 11
2976.3516242648648
 21
25625.471427449156
  0
LINE
  8
_0-5_
  6
DASHED1
 62
    4
 10
3023.0182909315263
 20
25345.471427449156
 11
3023.018290931529
 21
25625.471427449156
  0
LINE
  8
_0-5_
  6
DASHED1
 62
    4
 10
3069.6849575981928
 20
25345.471427449156
 11
3069.6849575981901
 21
25625.471427449156
  0
LINE
  8
_0-5_
  6
DASHED1
 62
    4
 10
3116.3516242648598
 20
25345.471427449156
 11
3116.3516242648539
 21
25625.471427449156
  0
LINE
  8
_0-5_
  6
DASHED1
 62
    4
 10
3163.0182909315267
 20
25345.471427449156
 11
3163.0182909315181
 21
25625.471427449156
  0
LINE
  8
_0-4_
  6
CONTINUOUS
 62
    3
 10
0
 20
19700
 11
8000
 21
19700
  0
LINE
  8
_0-4_
  6
CONTINUOUS
 62
    3
 10
16000
 20
29700
 11
24000
 21
29700
  0
LINE
  8
_0-4_
  6
CONTINUOUS
 62
    3
 10
24000
 20
19700
 11
24000
 21
29700
  0
LINE
  8
_0-4_
  6
CONTINUOUS
 62
    3
 10
16000
 20
19700
 11
24000
 21
19700
  0
LINE
  8
_0-1_
  6
CONTINUOUS
 62
    4
 10
18842.802420308253
 20
22761.351480622136
 11
20942.802420308253
 21
22761.351480622136
  0
LINE
  8
_0-1_
  6
CONTINUOUS
 62
    4
 10
20942.802420308253
 20
24861.351480622136
 11
18842.802420308253
 21
24861.351480622136
  0
LINE
  8
_0-1_
  6
CONTINUOUS
 62
    4
 10
18842.802420308253
 20
22761.351480622136
 11
20942.802420308253
 21
24861.351480622136
  0
LINE
  8
_0-1_
  6
CONTINUOUS
 62
    4
 10
20942.802420308253
 20
22761.351480622136
 11
18842.802420308253
 21
24861.351480622136
  0
LINE
  8
_0-1_
  6
CONTINUOUS
 62
    4
 10
18842.802420308253
 20
24641.351480622136
 11
16000
 21
23504.230512498834
  0
LINE
  8
_0-2_
  6
DASHED1
 62
    7
 10
22462.802420308253
 20
27338.709715877332
 11
16000
 21
24753.588747754045
  0
LINE
  8
_0-1_
  6
CONTINUOUS
 62
    4
 10
20942.802420308253
 20
24861.351480622136
 11
20942.802420308253
 21
19700
  0
LINE
  8
_0-1_
  6
CONTINUOUS
 62
    4
 10
18842.802420308253
 20
24861.351480622136
 11
18842.802420308253
 21
19700
  0
LINE
  8
_0-2_
  6
DASHED1
 62
    7
 10
20962.802420308253
 20
24861.351480622136
 11
20962.802420308253
 21
19700
  0
LINE
  8
_0-0_
  6
CENTER1
 62
    4
 10
19892.802420308253
 20
29700
 11
19892.802420308253
 21
19700
  0
LINE
  8
_0-1_
  6
CONTINUOUS
 62
    4
 10
22022.802420308253
 20
26866.681145906339
 11
22502.802420308253
 21
26866.681145906339
  0
LINE
  8
_0-1_
  6
CONTINUOUS
 62
    4
 10
22502.802420308253
 20
26517.169056648781
 11
23102.802420308253
 21
26517.169056648781
  0
LINE
  8
_0-1_
  6
CONTINUOUS
 62
    4
 10
23102.802420308253
 20
26517.169056648781
 11
23102.802420308253
 21
27317.169056648781
  0
LINE
  8
_0-1_
  6
CONTINUOUS
 62
    4
 10
22502.802420308253
 20
27317.169056648781
 11
22502.802420308253
 21
26517.169056648781
  0
LINE
  8
_0-1_
  6
CONTINUOUS
 62
    4
 10
22502.802420308253
 20
26517.169056648781
 11
23102.802420308253
 21
27317.169056648781
  0
LINE
  8
_0-4_
  6
CONTINUOUS
 62
    3
 10
23122.802420308253
 20
26477.169056648778
 11
23122.802420308253
 21
27357.169056648781
  0
LINE
  8
_0-4_
  6
CONTINUOUS
 62
    3
 10
23122.802420308253
 20
26477.169056648778
 11
23122.802420308253
 21
26377.169056648778
  0
LINE
  8
_0-4_
  6
CONTINUOUS
 62
    3
 10
23122.802420308253
 20
26377.169056648778
 11
23102.802420308253
 21
26377.169056648778
  0
LINE
  8
_0-4_
  6
CONTINUOUS
 62
    3
 10
22522.802420308253
 20
26497.169056648785
 11
23102.802420308253
 21
26497.169056648785
  0
LINE
  8
_0-4_
  6
CONTINUOUS
 62
    3
 10
23102.802420308253
 20
26377.169056648778
 11
23102.802420308253
 21
26497.169056648785
  0
LINE
  8
_0-4_
  6
CONTINUOUS
 62
    3
 10
23102.802420308253
 20
26477.169056648778
 11
22522.802420308253
 21
26477.169056648778
  0
LINE
  8
_0-1_
  6
CONTINUOUS
 62
    4
 10
22022.802420308253
 20
23866.681145906339
 11
22022.802420308253
 21
26866.681145906339
  0
LINE
  8
_0-1_
  6
CONTINUOUS
 62
    4
 10
22502.802420308253
 20
23866.681145906339
 11
22022.802420308253
 21
23866.681145906339
  0
LINE
  8
_0-1_
  6
CONTINUOUS
 62
    4
 10
22502.802420308253
 20
26866.681145906339
 11
22502.802420308253
 21
23866.681145906339
  0
LINE
  8
_0-4_
  6
CONTINUOUS
 62
    3
 10
22522.802420308253
 20
26477.169056648778
 11
22522.802420308253
 21
23846.681145906339
  0
LINE
  8
_0-4_
  6
CONTINUOUS
 62
    3
 10
22522.802420308253
 20
23846.681145906339
 11
22002.802420308253
 21
23846.681145906339
  0
LINE
  8
_0-1_
  6
CONTINUOUS
 62
    4
 10
22502.802420308253
 20
26866.681145906339
 11
22022.802420308253
 21
23866.681145906339
  0
LINE
  8
_0-1_
  6
CONTINUOUS
 62
    4
 10
22497.285178928942
 20
27072.474249354615
 11
16000
 21
24473.560177783045
  0
LINE
  8
_0-1_
  6
CONTINUOUS
 62
    4
 10
22497.285178928942
 20
27072.474249354615
 11
22408.15141660396
 21
27295.308655167071
  0
LINE
  8
_0-1_
  6
CONTINUOUS
 62
    4
 10
22462.802420308235
 20
27317.169056648781
 11
16000
 21
24732.048088525495
  0
LINE
  8
_0-1_
  6
CONTINUOUS
 62
    4
 10
23102.802420308253
 20
27317.169056648781
 11
22462.802420308235
 21
27317.169056648781
  0
LINE
  8
_0-2_
  6
DASHED1
 62
    7
 10
22458.950772236858
 20
27337.169056648781
 11
16000
 21
24753.588747754031
  0
LINE
  8
_0-2_
  6
DASHED1
 62
    7
 10
23102.802420308253
 20
27337.169056648781
 11
22458.950772236858
 21
27337.169056648781
  0
LINE
  8
_0-4_
  6
CONTINUOUS
 62
    3
 10
23122.802420308253
 20
27357.169056648781
 11
22455.099124165517
 21
27357.169056648781
  0
LINE
  8
_0-4_
  6
CONTINUOUS
 62
    3
 10
22455.099124165517
 20
27357.169056648781
 11
16000
 21
24775.129406982567
  0
LINE
  8
_0-1_
  6
CONTINUOUS
 62
    4
 10
19392.802420308257
 20
24861.351480622136
 11
22022.802420308253
 21
25913.351480622136
  0
LINE
  8
_0-1_
  6
CONTINUOUS
 62
    4
 10
21622.802420308253
 20
24046.681145906339
 11
21302.802420308253
 21
24046.681145906339
  0
LINE
  8
_0-1_
  6
CONTINUOUS
 62
    4
 10
21622.802420308253
 20
23846.681145906339
 11
21302.802420308253
 21
23846.681145906339
  0
LINE
  8
_0-1_
  6
CONTINUOUS
 62
    4
 10
21622.802420308253
 20
24046.681145906339
 11
21302.802420308253
 21
23846.681145906339
  0
LINE
  8
_0-1_
  6
CONTINUOUS
 62
    4
 10
21302.802420308253
 20
24046.681145906339
 11
21622.802420308253
 21
23846.681145906339
  0
LINE
  8
_0-3_
  6
CONTINUOUS
 62
    2
 10
21622.802420308253
 20
23846.681145906339
 11
21622.802420308253
 21
19700
  0
LINE
  8
_0-4_
  6
CONTINUOUS
 62
    3
 10
22002.802420308253
 20
23846.681145906339
 11
22002.802420308253
 21
24035.570034795244
  0
LINE
  8
_0-5_
  6
CONTINUOUS
 62
    7
 10
22022.802420308253
 20
24946.681145906339
 11
21622.802420308253
 21
24946.681145906339
  0
LINE
  8
_0-5_
  6
CONTINUOUS
 62
    7
 10
21622.802420308253
 20
24946.681145906339
 11
21622.802420308253
 21
24046.681145906339
  0
LINE
  8
_0-5_
  6
CONTINUOUS
 62
    7
 10
21622.802420308253
 20
24046.681145906339
 11
22022.802420308253
 21
24046.681145906339
  0
LINE
  8
_0-5_
  6
CONTINUOUS
 62
    7
 10
22022.802420308253
 20
24046.681145906339
 11
22022.802420308253
 21
24946.681145906339
  0
LINE
  8
_0-5_
  6
CONTINUOUS
 62
    7
 10
21682.802420308253
 20
24946.681145906339
 11
21682.802420308253
 21
24046.681145906339
  0
LINE
  8
_0-5_
  6
CONTINUOUS
 62
    7
 10
21962.802420308253
 20
24046.681145906339
 11
21962.802420308253
 21
24946.681145906339
  0
LINE
  8
_0-5_
  6
DASHED1
 62
    4
 10
21682.80242030826
 20
24356.681145906339
 11
21962.80242030826
 21
24356.681145906339
  0
LINE
  8
_0-5_
  6
DASHED1
 62
    4
 10
21682.802420308253
 20
24636.681145906339
 11
21962.802420308253
 21
24636.681145906339
  0
LINE
  8
_0-5_
  6
DASHED1
 62
    4
 10
21729.469086974925
 20
24356.681145906339
 11
21729.469086974925
 21
24636.681145906339
  0
LINE
  8
_0-5_
  6
DASHED1
 62
    4
 10
21776.135753641589
 20
24356.681145906339
 11
21776.135753641589
 21
24636.681145906339
  0
LINE
  8
_0-5_
  6
DASHED1
 62
    4
 10
21822.802420308253
 20
24356.681145906339
 11
21822.80242030825
 21
24636.681145906339
  0
LINE
  8
_0-5_
  6
DASHED1
 62
    4
 10
21869.469086974917
 20
24356.681145906339
 11
21869.469086974917
 21
24636.681145906339
  0
LINE
  8
_0-5_
  6
DASHED1
 62
    4
 10
21916.135753641585
 20
24356.681145906339
 11
21916.135753641582
 21
24636.681145906339
  0
LINE
  8
_0-1_
  6
CONTINUOUS
 62
    4
 10
21302.802420308253
 20
24946.681145906339
 11
21622.802420308253
 21
24946.681145906339
  0
LINE
  8
_0-1_
  6
CONTINUOUS
 62
    4
 10
21302.802420308253
 20
24946.681145906339
 11
21302.802420308253
 21
19700
  0
LINE
  8
_0-1_
  6
CONTINUOUS
 62
    4
 10
21302.802420308253
 20
24046.681145906339
 11
21622.802420308253
 21
24946.681145906339
  0
LINE
  8
_0-1_
  6
CONTINUOUS
 62
    4
 10
21622.802420308253
 20
23846.681145906339
 11
21622.802420308253
 21
24946.681145906339
  0
LINE
  8
_0-4_
  6
CONTINUOUS
 62
    3
 10
16000
 20
29700
 11
24000
 21
29700
  0
LINE
  8
_0-4_
  6
CONTINUOUS
 62
    3
 10
16000
 20
29400
 11
24000
 21
29400
  0
LINE
  8
_0-4_
  6
CONTINUOUS
 62
    3
 10
18000
 20
29700
 11
18000
 21
29400
  0
LINE
  8
_0-4_
  6
CONTINUOUS
 62
    3
 10
20000
 20
29700
 11
20000
 21
29400
  0
TEXT
  8
_0-1_
 62
    4
 10
16457.360241400354
 20
29450
 40
200
 41
1
 50
0
  1
デハイリー
  0
LINE
  8
_0-4_
  6
CONTINUOUS
 62
    3
 10
0
 20
29700
 11
8000
 21
29700
  0
LINE
  8
_0-4_
  6
CONTINUOUS
 62
    3
 10
0
 20
29700
 11
8000
 21
29700
  0
LINE
  8
_0-4_
  6
CONTINUOUS
 62
    3
 10
0
 20
29400
 11
8000
 21
29400
  0
LINE
  8
_0-4_
  6
CONTINUOUS
 62
    3
 10
2000
 20
29700
 11
2000
 21
29400
  0
LINE
  8
_0-4_
  6
CONTINUOUS
 62
    3
 10
4000
 20
29700
 11
4000
 21
29400
  0
TEXT
  8
_0-1_
 62
    4
 10
2657.3602414003544
 20
29450
 40
200
 41
1
 50
0
  1
無落雪
  0
TEXT
  8
_0-1_
 62
    4
 10
457.36024140035454
 20
29450
 40
200
 41
1
 50
0
  1
デハイリー
  0
LINE
  8
_0-4_
  6
CONTINUOUS
 62
    3
 10
0
 20
19700
 11
8000
 21
19700
  0
LINE
  8
_0-4_
  6
CONTINUOUS
 62
    3
 10
0
 20
19700
 11
8000
 21
19700
  0
TEXT
  8
_0-1_
 62
    4
 10
23233.854611792398
 20
29450
 40
200
 41
1
 50
0
  1
S=1/5
  0
TEXT
  8
_0-1_
 62
    4
 10
7233.8546117923979
 20
29450
 40
200
 41
1
 50
0
  1
S=1/5
  0
TEXT
  8
_0-1_
 62
    4
 10
18057.360241400354
 20
29450
 40
200
 41
1
 50
0
  1
軒の出のない納まり
  0
LINE
  8
_0-4_
  6
CONTINUOUS
 62
    3
 10
8000
 20
29700
 11
16000
 21
29700
  0
LINE
  8
_0-4_
  6
CONTINUOUS
 62
    3
 10
8000
 20
19700
 11
8000
 21
29700
  0
LINE
  8
_0-4_
  6
CONTINUOUS
 62
    3
 10
8000
 20
19700
 11
16000
 21
19700
  0
LINE
  8
_0-1_
  6
CONTINUOUS
 62
    4
 10
13551.724091465974
 20
24666.057431272049
 11
15651.724091465974
 21
24666.057431272049
  0
LINE
  8
_0-1_
  6
CONTINUOUS
 62
    4
 10
13551.724091465974
 20
24666.057431272049
 11
15651.724091465974
 21
26766.057431272049
  0
LINE
  8
_0-1_
  6
CONTINUOUS
 62
    4
 10
15651.724091465974
 20
24666.057431272049
 11
13551.724091465974
 21
26766.057431272049
  0
LINE
  8
_0-1_
  6
CONTINUOUS
 62
    4
 10
15651.724091465974
 20
26766.057431272049
 11
13551.724091465974
 21
26766.057431272049
  0
LINE
  8
_0-1_
  6
CONTINUOUS
 62
    4
 10
14101.72409146598
 20
26766.057431272049
 11
16000
 21
27525.367794685655
  0
LINE
  8
_0-1_
  6
CONTINUOUS
 62
    4
 10
16000
 20
28753.185370712315
 11
8565.3234310337302
 21
25779.314743125822
  0
LINE
  8
_0-2_
  6
DASHED1
 62
    7
 10
16000
 20
28774.726029940848
 11
8565.3234310337302
 21
25800.855402354362
  0
LINE
  8
_0-1_
  6
CONTINUOUS
 62
    4
 10
16000
 20
28753.185370712334
 11
8565.3234310337302
 21
25779.314743125808
  0
LINE
  8
_0-2_
  6
DASHED1
 62
    7
 10
16000
 20
28774.726029940866
 11
8565.3234310337302
 21
25800.855402354351
  0
LINE
  8
_0-1_
  6
CONTINUOUS
 62
    4
 10
8565.3234310337302
 20
25779.314743125808
 11
8654.457193358714
 21
25556.480337313355
  0
LINE
  8
_0-1_
  6
CONTINUOUS
 62
    4
 10
9285.3234310337248
 20
22680.826832383362
 11
9765.3234310337248
 21
22680.826832383362
  0
LINE
  8
_0-1_
  6
CONTINUOUS
 62
    4
 10
9765.3234310337248
 20
22680.826832383362
 11
9765.3234310337284
 21
25680.826832383362
  0
LINE
  8
_0-1_
  6
CONTINUOUS
 62
    4
 10
9285.3234310337284
 20
25680.826832383362
 11
9765.3234310337284
 21
25680.826832383362
  0
LINE
  8
_0-1_
  6
CONTINUOUS
 62
    4
 10
9285.3234310337248
 20
22680.826832383362
 11
9765.3234310337284
 21
25680.826832383362
  0
LINE
  8
_0-1_
  6
CONTINUOUS
 62
    4
 10
9765.3234310337248
 20
22680.826832383362
 11
10565.323431033725
 21
22680.826832383362
  0
LINE
  8
_0-1_
  6
CONTINUOUS
 62
    4
 10
10565.323431033725
 20
22680.826832383362
 11
10565.323431033725
 21
23280.826832383362
  0
LINE
  8
_0-1_
  6
CONTINUOUS
 62
    4
 10
10565.323431033725
 20
23280.826832383362
 11
9765.3234310337248
 21
23280.826832383362
  0
LINE
  8
_0-1_
  6
CONTINUOUS
 62
    4
 10
9765.3234310337248
 20
23280.826832383362
 11
9765.3234310337248
 21
22680.826832383362
  0
LINE
  8
_0-1_
  6
CONTINUOUS
 62
    4
 10
9765.3234310337248
 20
22680.826832383362
 11
10565.323431033725
 21
23280.826832383362
  0
LINE
  8
_0-1_
  6
CONTINUOUS
 62
    4
 10
13551.724091465974
 20
26766.057431272049
 11
13551.724091465974
 21
19700
  0
LINE
  8
_0-1_
  6
CONTINUOUS
 62
    4
 10
15651.724091465974
 20
26766.057431272049
 11
15651.724091465974
 21
19700
  0
LINE
  8
_0-0_
  6
CENTER1
 62
    4
 10
14601.724091465974
 20
29700
 11
14601.724091465974
 21
19700
  0
LINE
  8
_0-1_
  6
CONTINUOUS
 62
    4
 10
9765.3234310337284
 20
25680.826832383362
 11
9765.3234310337284
 21
26000.826832383358
  0
LINE
  8
_0-4_
  6
CONTINUOUS
 62
    3
 10
8543.0399904524802
 20
25781.171696507598
 11
8691.5962609941198
 21
25409.781020153496
  0
LINE
  8
_0-4_
  6
CONTINUOUS
 62
    3
 10
8691.5962609941198
 20
25409.781020153496
 11
8681.6335793285161
 21
25466.651179825276
  0
LINE
  8
_0-4_
  6
CONTINUOUS
 62
    3
 10
8543.0399904524802
 20
25781.171696507598
 11
9285.8213431606891
 21
26078.28423759088
  0
LINE
  8
_0-3_
  6
CONTINUOUS
 62
    2
 10
16000
 20
28990.132622226247
 11
8093.657272064007
 21
25827.595531051884
  0
LINE
  8
_0-3_
  6
DASHED3
 62
    4
 10
16000
 20
28882.429326083547
 11
8130.796339699421
 21
25734.74786196334
  0
LINE
  8
_0-3_
  6
CONTINUOUS
 62
    2
 10
8093.657272064007
 20
25827.595531051884
 11
8171.6493140983775
 21
25632.615425965956
  0
LINE
  8
_0-3_
  6
CONTINUOUS
 62
    2
 10
8171.6493140983775
 20
25632.615425965956
 11
8565.3234310337302
 21
25800.855402354362
  0
LINE
  8
_0-3_
  6
CONTINUOUS
 62
    2
 10
12871.724091465972
 20
22440.826832383376
 11
12871.724091465972
 21
19700
  0
LINE
  8
_0-3_
  6
CONTINUOUS
 62
    2
 10
12871.724091465972
 20
22440.826832383376
 11
13191.724091465971
 21
22440.826832383376
  0
LINE
  8
_0-1_
  6
CONTINUOUS
 62
    4
 10
16000
 20
28494.697459969866
 11
8654.457193358714
 21
25556.480337313355
  0
LINE
  8
_0-1_
  6
CONTINUOUS
 62
    4
 10
13551.724091465974
 20
26546.057431272049
 11
9765.3234310337284
 21
25031.497167099151
  0
LINE
  8
_0-1_
  6
CONTINUOUS
 62
    4
 10
12871.724091465972
 20
22580.826832383362
 11
13191.724091465974
 21
22580.826832383362
  0
LINE
  8
_0-1_
  6
CONTINUOUS
 62
    4
 10
12871.724091465972
 20
22580.826832383362
 11
12871.724091465972
 21
22440.826832383376
  0
LINE
  8
_0-1_
  6
CONTINUOUS
 62
    4
 10
12871.724091465972
 20
22440.826832383376
 11
13191.724091465974
 21
22580.826832383362
  0
LINE
  8
_0-1_
  6
CONTINUOUS
 62
    4
 10
12871.724091465972
 20
22580.826832383362
 11
13191.724091465971
 21
22440.826832383376
  0
LINE
  8
_0-1_
  6
CONTINUOUS
 62
    4
 10
12871.724091465972
 20
23480.826832383376
 11
13191.724091465974
 21
23480.826832383376
  0
LINE
  8
_0-1_
  6
CONTINUOUS
 62
    4
 10
13191.724091465974
 20
19700
 11
13191.724091465974
 21
23480.826832383376
  0
LINE
  8
_0-1_
  6
CONTINUOUS
 62
    4
 10
12871.724091465972
 20
22580.826832383362
 11
12871.724091465972
 21
23480.826832383376
  0
LINE
  8
_0-1_
  6
CONTINUOUS
 62
    4
 10
13191.724091465974
 20
23480.826832383376
 11
12871.724091465972
 21
22580.826832383362
  0
LINE
  8
_0-3_
  6
CONTINUOUS
 62
    2
 10
12471.724091465974
 20
22680.826832383362
 11
12471.724091465974
 21
22440.826832383362
  0
LINE
  8
_0-3_
  6
CONTINUOUS
 62
    2
 10
9285.3234310337248
 20
22440.826832383362
 11
12471.724091465974
 21
22440.826832383362
  0
LINE
  8
_0-1_
  6
CONTINUOUS
 62
    4
 10
9285.3234310337248
 20
22680.826832383362
 11
12471.724091465974
 21
22680.826832383362
  0
LINE
  8
_0-1_
  6
CONTINUOUS
 62
    4
 10
11671.724091465974
 20
22680.826832383362
 11
12471.724091465974
 21
22680.826832383362
  0
LINE
  8
_0-1_
  6
CONTINUOUS
 62
    4
 10
12471.724091465974
 20
22680.826832383362
 11
12471.724091465974
 21
23280.826832383362
  0
LINE
  8
_0-1_
  6
CONTINUOUS
 62
    4
 10
12471.724091465974
 20
23280.826832383362
 11
11671.724091465974
 21
23280.826832383362
  0
LINE
  8
_0-1_
  6
CONTINUOUS
 62
    4
 10
11671.724091465974
 20
23280.826832383362
 11
11671.724091465974
 21
22680.826832383362
  0
LINE
  8
_0-1_
  6
CONTINUOUS
 62
    4
 10
11671.724091465974
 20
22680.826832383362
 11
12471.724091465974
 21
23280.826832383362
  0
LINE
  8
_0-5_
  6
CONTINUOUS
 62
    7
 10
12871.724091465972
 20
23480.826832383362
 11
12471.724091465974
 21
23480.826832383362
  0
LINE
  8
_0-5_
  6
CONTINUOUS
 62
    7
 10
12471.724091465974
 20
23480.826832383362
 11
12471.724091465974
 21
22580.826832383362
  0
LINE
  8
_0-5_
  6
CONTINUOUS
 62
    7
 10
12471.724091465974
 20
22580.826832383362
 11
12871.724091465972
 21
22580.826832383362
  0
LINE
  8
_0-5_
  6
CONTINUOUS
 62
    7
 10
12871.724091465972
 20
22580.826832383362
 11
12871.724091465972
 21
23480.826832383362
  0
LINE
  8
_0-5_
  6
CONTINUOUS
 62
    7
 10
12531.724091465974
 20
23480.826832383362
 11
12531.724091465974
 21
22580.826832383362
  0
LINE
  8
_0-5_
  6
CONTINUOUS
 62
    7
 10
12811.724091465976
 20
22580.826832383362
 11
12811.724091465976
 21
23480.826832383362
  0
LINE
  8
_0-5_
  6
DASHED1
 62
    4
 10
12531.72409146598
 20
22890.826832383362
 11
12811.724091465981
 21
22890.826832383362
  0
LINE
  8
_0-5_
  6
DASHED1
 62
    4
 10
12531.724091465974
 20
23170.826832383362
 11
12811.724091465976
 21
23170.826832383362
  0
LINE
  8
_0-5_
  6
DASHED1
 62
    4
 10
12578.390758132644
 20
22890.826832383362
 11
12578.390758132648
 21
23170.826832383362
  0
LINE
  8
_0-5_
  6
DASHED1
 62
    4
 10
12625.05742479931
 20
22890.826832383362
 11
12625.057424799312
 21
23170.826832383362
  0
LINE
  8
_0-5_
  6
DASHED1
 62
    4
 10
12671.724091465976
 20
22890.826832383362
 11
12671.724091465971
 21
23170.826832383362
  0
LINE
  8
_0-5_
  6
DASHED1
 62
    4
 10
12718.39075813264
 20
22890.826832383362
 11
12718.390758132637
 21
23170.826832383362
  0
LINE
  8
_0-5_
  6
DASHED1
 62
    4
 10
12765.057424799306
 20
22890.826832383362
 11
12765.057424799301
 21
23170.826832383362
  0
LINE
  8
_0-4_
  6
CONTINUOUS
 62
    3
 10
16000
 20
19700
 11
16000
 21
29700
  0
LINE
  8
_0-3_
  6
CONTINUOUS
 62
    2
 10
9285.3234310337284
 20
25680.826832383362
 11
8965.3234310337284
 21
25680.826832383362
  0
LINE
  8
_0-3_
  6
CONTINUOUS
 62
    2
 10
8965.3234310337248
 20
22600.826832383362
 11
9025.3234310337248
 21
22600.826832383362
  0
LINE
  8
_0-3_
  6
CONTINUOUS
 62
    2
 10
8965.3234310337284
 20
25680.826832383362
 11
8965.3234310337248
 21
22600.826832383362
  0
LINE
  8
_0-3_
  6
CONTINUOUS
 62
    2
 10
9285.3234310337248
 20
22080.826832383362
 11
9285.3234310337284
 21
25680.826832383362
  0
LINE
  8
_0-3_
  6
CONTINUOUS
 62
    2
 10
9025.3234310337248
 20
22080.826832383362
 11
9285.3234310337248
 21
22080.826832383362
  0
LINE
  8
_0-3_
  6
CONTINUOUS
 62
    2
 10
9025.3234310337248
 20
22600.826832383362
 11
9025.3234310337248
 21
22080.826832383362
  0
LINE
  8
_0-4_
  6
CONTINUOUS
 62
    3
 10
8000
 20
29700
 11
16000
 21
29700
  0
LINE
  8
_0-4_
  6
CONTINUOUS
 62
    3
 10
8000
 20
29400
 11
16000
 21
29400
  0
LINE
  8
_0-4_
  6
CONTINUOUS
 62
    3
 10
10000
 20
29700
 11
10000
 21
29400
  0
LINE
  8
_0-4_
  6
CONTINUOUS
 62
    3
 10
12000
 20
29700
 11
12000
 21
29400
  0
TEXT
  8
_0-1_
 62
    4
 10
8457.3602414003544
 20
29450
 40
200
 41
1
 50
0
  1
デハイリー
  0
TEXT
  8
_0-1_
 62
    4
 10
15233.854611792398
 20
29450
 40
200
 41
1
 50
0
  1
S=1/5
  0
LINE
  8
_0-2_
  6
DASHED1
 62
    7
 10
13531.724091465974
 20
26766.057431272049
 11
13531.724091465974
 21
19700
  0
LINE
  8
_0-4_
  6
CONTINUOUS
 62
    3
 10
24000
 20
29700
 11
32000
 21
29700
  0
LINE
  8
_0-4_
  6
CONTINUOUS
 62
    3
 10
24000
 20
19700
 11
24000
 21
29700
  0
LINE
  8
_0-4_
  6
CONTINUOUS
 62
    3
 10
24000
 20
19700
 11
32000
 21
19700
  0
LINE
  8
_0-1_
  6
CONTINUOUS
 62
    4
 10
29551.724091465974
 20
24666.057431272049
 11
31651.724091465974
 21
24666.057431272049
  0
LINE
  8
_0-1_
  6
CONTINUOUS
 62
    4
 10
29551.724091465974
 20
24666.057431272049
 11
31651.724091465974
 21
26766.057431272049
  0
LINE
  8
_0-1_
  6
CONTINUOUS
 62
    4
 10
31651.724091465974
 20
24666.057431272049
 11
29551.724091465974
 21
26766.057431272049
  0
LINE
  8
_0-1_
  6
CONTINUOUS
 62
    4
 10
31651.724091465974
 20
26766.057431272049
 11
29551.724091465974
 21
26766.057431272049
  0
LINE
  8
_0-1_
  6
CONTINUOUS
 62
    4
 10
30101.724091465978
 20
26766.057431272049
 11
32000
 21
27525.367794685655
  0
LINE
  8
_0-1_
  6
CONTINUOUS
 62
    4
 10
32000
 20
28753.185370712315
 11
24565.323431033728
 21
25779.314743125822
  0
LINE
  8
_0-2_
  6
DASHED1
 62
    7
 10
32000
 20
28774.726029940848
 11
24565.323431033728
 21
25800.855402354362
  0
LINE
  8
_0-1_
  6
CONTINUOUS
 62
    4
 10
32000
 20
28753.185370712334
 11
24565.323431033728
 21
25779.314743125808
  0
LINE
  8
_0-2_
  6
DASHED1
 62
    7
 10
32000
 20
28774.726029940866
 11
24565.323431033728
 21
25800.855402354351
  0
LINE
  8
_0-1_
  6
CONTINUOUS
 62
    4
 10
24565.323431033728
 20
25779.314743125808
 11
24654.457193358714
 21
25556.480337313355
  0
LINE
  8
_0-1_
  6
CONTINUOUS
 62
    4
 10
25285.323431033725
 20
22680.826832383362
 11
25765.323431033728
 21
22680.826832383362
  0
LINE
  8
_0-1_
  6
CONTINUOUS
 62
    4
 10
25765.323431033728
 20
22680.826832383362
 11
25765.323431033728
 21
25680.826832383362
  0
LINE
  8
_0-1_
  6
CONTINUOUS
 62
    4
 10
25285.323431033728
 20
25680.826832383362
 11
25765.323431033728
 21
25680.826832383362
  0
LINE
  8
_0-1_
  6
CONTINUOUS
 62
    4
 10
25285.323431033725
 20
22680.826832383362
 11
25765.323431033728
 21
25680.826832383362
  0
LINE
  8
_0-1_
  6
CONTINUOUS
 62
    4
 10
29551.724091465974
 20
26766.057431272049
 11
29551.724091465974
 21
19700
  0
LINE
  8
_0-1_
  6
CONTINUOUS
 62
    4
 10
31651.724091465974
 20
26766.057431272049
 11
31651.724091465974
 21
19700
  0
LINE
  8
_0-0_
  6
CENTER1
 62
    4
 10
30601.724091465974
 20
29700
 11
30601.724091465974
 21
19700
  0
LINE
  8
_0-1_
  6
CONTINUOUS
 62
    4
 10
25765.323431033728
 20
25680.826832383362
 11
25765.323431033728
 21
26000.826832383358
  0
LINE
  8
_0-4_
  6
CONTINUOUS
 62
    3
 10
24543.039990452482
 20
25781.171696507598
 11
24691.59626099412
 21
25409.781020153496
  0
LINE
  8
_0-4_
  6
CONTINUOUS
 62
    3
 10
24691.59626099412
 20
25409.781020153496
 11
24681.633579328518
 21
25466.651179825276
  0
LINE
  8
_0-4_
  6
CONTINUOUS
 62
    3
 10
24543.039990452482
 20
25781.171696507598
 11
25285.821343160689
 21
26078.28423759088
  0
LINE
  8
_0-3_
  6
CONTINUOUS
 62
    2
 10
32000
 20
28990.132622226247
 11
24093.657272064007
 21
25827.595531051884
  0
LINE
  8
_0-3_
  6
DASHED3
 62
    4
 10
32000
 20
28882.429326083547
 11
24130.796339699424
 21
25734.74786196334
  0
LINE
  8
_0-3_
  6
CONTINUOUS
 62
    2
 10
24093.657272064007
 20
25827.595531051884
 11
24171.649314098377
 21
25632.615425965956
  0
LINE
  8
_0-3_
  6
CONTINUOUS
 62
    2
 10
24171.649314098377
 20
25632.615425965956
 11
24565.323431033728
 21
25800.855402354362
  0
LINE
  8
_0-1_
  6
CONTINUOUS
 62
    4
 10
32000
 20
28494.697459969866
 11
24654.457193358714
 21
25556.480337313355
  0
LINE
  8
_0-1_
  6
CONTINUOUS
 62
    4
 10
29551.724091465974
 20
26546.057431272049
 11
25765.323431033728
 21
25031.497167099151
  0
LINE
  8
_0-4_
  6
CONTINUOUS
 62
    3
 10
32000
 20
19700
 11
32000
 21
29700
  0
LINE
  8
_0-3_
  6
CONTINUOUS
 62
    2
 10
25285.323431033728
 20
25680.826832383362
 11
24965.323431033728
 21
25680.826832383362
  0
LINE
  8
_0-3_
  6
CONTINUOUS
 62
    2
 10
24965.323431033725
 20
22600.826832383362
 11
25025.323431033725
 21
22600.826832383362
  0
LINE
  8
_0-3_
  6
CONTINUOUS
 62
    2
 10
24965.323431033728
 20
25680.826832383362
 11
24965.323431033725
 21
22600.826832383362
  0
LINE
  8
_0-3_
  6
CONTINUOUS
 62
    2
 10
25285.323431033725
 20
22080.826832383362
 11
25285.323431033728
 21
25680.826832383362
  0
LINE
  8
_0-3_
  6
CONTINUOUS
 62
    2
 10
25025.323431033725
 20
22080.826832383362
 11
25285.323431033725
 21
22080.826832383362
  0
LINE
  8
_0-3_
  6
CONTINUOUS
 62
    2
 10
25025.323431033725
 20
22600.826832383362
 11
25025.323431033725
 21
22080.826832383362
  0
LINE
  8
_0-4_
  6
CONTINUOUS
 62
    3
 10
24000
 20
29700
 11
32000
 21
29700
  0
LINE
  8
_0-4_
  6
CONTINUOUS
 62
    3
 10
24000
 20
29400
 11
32000
 21
29400
  0
LINE
  8
_0-4_
  6
CONTINUOUS
 62
    3
 10
26000
 20
29700
 11
26000
 21
29400
  0
LINE
  8
_0-4_
  6
CONTINUOUS
 62
    3
 10
28000
 20
29700
 11
28000
 21
29400
  0
TEXT
  8
_0-1_
 62
    4
 10
24457.360241400354
 20
29450
 40
200
 41
1
 50
0
  1
デハイリー
  0
TEXT
  8
_0-1_
 62
    4
 10
31233.854611792402
 20
29450
 40
200
 41
1
 50
0
  1
S=1/5
  0
LINE
  8
_0-2_
  6
DASHED1
 62
    7
 10
29531.724091465974
 20
26766.057431272049
 11
29531.724091465974
 21
19700
  0
TEXT
  8
_0-1_
 62
    4
 10
10007.360241400354
 20
29450
 40
200
 41
1
 50
0
  1
軒の出のある納まり1
  0
TEXT
  8
_0-1_
 62
    4
 10
26007.360241400351
 20
29450
 40
200
 41
1
 50
0
  1
軒の出のある納まり2
  0
LINE
  8
_0-5_
  6
CONTINUOUS
 62
    7
 10
26165.323431033728
 20
23480.826832383362
 11
25765.323431033728
 21
23480.826832383362
  0
LINE
  8
_0-5_
  6
CONTINUOUS
 62
    7
 10
25765.323431033728
 20
23480.826832383362
 11
25765.323431033728
 21
22580.826832383362
  0
LINE
  8
_0-5_
  6
CONTINUOUS
 62
    7
 10
25765.323431033728
 20
22580.826832383362
 11
26165.323431033728
 21
22580.826832383362
  0
LINE
  8
_0-5_
  6
CONTINUOUS
 62
    7
 10
26165.323431033728
 20
22580.826832383362
 11
26165.323431033728
 21
23480.826832383362
  0
LINE
  8
_0-5_
  6
CONTINUOUS
 62
    7
 10
25825.323431033728
 20
23480.826832383362
 11
25825.323431033728
 21
22580.826832383362
  0
LINE
  8
_0-5_
  6
CONTINUOUS
 62
    7
 10
26105.323431033728
 20
22580.826832383362
 11
26105.323431033728
 21
23480.826832383362
  0
LINE
  8
_0-5_
  6
DASHED1
 62
    4
 10
25825.323431033736
 20
22890.826832383362
 11
26105.323431033728
 21
22890.826832383362
  0
LINE
  8
_0-5_
  6
DASHED1
 62
    4
 10
25825.323431033728
 20
23170.826832383362
 11
26105.323431033728
 21
23170.826832383362
  0
LINE
  8
_0-5_
  6
DASHED1
 62
    4
 10
25871.990097700393
 20
22890.826832383362
 11
25871.990097700404
 21
23170.826832383362
  0
LINE
  8
_0-5_
  6
DASHED1
 62
    4
 10
25918.656764367064
 20
22890.826832383362
 11
25918.656764367068
 21
23170.826832383362
  0
LINE
  8
_0-5_
  6
DASHED1
 62
    4
 10
25965.323431033732
 20
22890.826832383362
 11
25965.323431033728
 21
23170.826832383362
  0
LINE
  8
_0-5_
  6
DASHED1
 62
    4
 10
26011.990097700396
 20
22890.826832383362
 11
26011.990097700393
 21
23170.826832383362
  0
LINE
  8
_0-5_
  6
DASHED1
 62
    4
 10
26058.656764367061
 20
22890.826832383362
 11
26058.656764367053
 21
23170.826832383362
  0
LINE
  8
_0-3_
  6
CONTINUOUS
 62
    2
 10
28871.724091465974
 20
22300.826832383456
 11
28871.724091465974
 21
19700
  0
LINE
  8
_0-3_
  6
CONTINUOUS
 62
    2
 10
28871.724091465974
 20
22300.826832383456
 11
29191.724091465971
 21
22300.826832383456
  0
LINE
  8
_0-1_
  6
CONTINUOUS
 62
    4
 10
28871.724091465974
 20
22440.826832383442
 11
28871.724091465974
 21
22300.826832383456
  0
LINE
  8
_0-1_
  6
CONTINUOUS
 62
    4
 10
28871.724091465974
 20
22300.826832383456
 11
29191.724091465971
 21
22440.826832383442
  0
LINE
  8
_0-1_
  6
CONTINUOUS
 62
    4
 10
28871.724091465974
 20
22440.826832383442
 11
29191.724091465971
 21
22300.826832383456
  0
LINE
  8
_0-1_
  6
CONTINUOUS
 62
    4
 10
28871.724091465974
 20
22440.826832383442
 11
29191.724091465971
 21
22440.826832383442
  0
LINE
  8
_0-1_
  6
CONTINUOUS
 62
    4
 10
29191.724091465971
 20
19700
 11
29191.724091465971
 21
22440.826832383442
  0
LINE
  8
_0-3_
  6
CONTINUOUS
 62
    2
 10
29191.724091465971
 20
22680.826832383362
 11
29191.724091465971
 21
22440.826832383362
  0
LINE
  8
_0-1_
  6
CONTINUOUS
 62
    4
 10
28391.724091465971
 20
22680.826832383362
 11
29191.724091465971
 21
22680.826832383362
  0
LINE
  8
_0-1_
  6
CONTINUOUS
 62
    4
 10
29191.724091465971
 20
22680.826832383362
 11
29191.724091465971
 21
23280.826832383362
  0
LINE
  8
_0-1_
  6
CONTINUOUS
 62
    4
 10
29191.724091465971
 20
23280.826832383362
 11
28391.724091465971
 21
23280.826832383362
  0
LINE
  8
_0-1_
  6
CONTINUOUS
 62
    4
 10
28391.724091465971
 20
23280.826832383362
 11
28391.724091465971
 21
22680.826832383362
  0
LINE
  8
_0-1_
  6
CONTINUOUS
 62
    4
 10
28391.724091465971
 20
22680.826832383362
 11
29191.724091465971
 21
23280.826832383362
  0
LINE
  8
_0-1_
  6
CONTINUOUS
 62
    4
 10
26165.323431033728
 20
22680.826832383362
 11
26965.323431033728
 21
22680.826832383362
  0
LINE
  8
_0-1_
  6
CONTINUOUS
 62
    4
 10
26965.323431033728
 20
22680.826832383362
 11
26965.323431033728
 21
23280.826832383362
  0
LINE
  8
_0-1_
  6
CONTINUOUS
 62
    4
 10
26965.323431033728
 20
23280.826832383362
 11
26165.323431033728
 21
23280.826832383362
  0
LINE
  8
_0-1_
  6
CONTINUOUS
 62
    4
 10
26165.323431033728
 20
23280.826832383362
 11
26165.323431033728
 21
22680.826832383362
  0
LINE
  8
_0-1_
  6
CONTINUOUS
 62
    4
 10
26165.323431033728
 20
22680.826832383362
 11
26965.323431033728
 21
23280.826832383362
  0
LINE
  8
_0-3_
  6
CONTINUOUS
 62
    2
 10
25285.323431033725
 20
22440.826832383362
 11
25765.323431033728
 21
22440.826832383362
  0
LINE
  8
_0-3_
  6
CONTINUOUS
 62
    2
 10
26165.323431033728
 20
22440.826832383362
 11
29191.724091465971
 21
22440.826832383362
  0
LINE
  8
_0-1_
  6
CONTINUOUS
 62
    4
 10
25285.323431033725
 20
22680.826832383362
 11
25765.323431033728
 21
22680.826832383362
  0
LINE
  8
_0-1_
  6
CONTINUOUS
 62
    4
 10
26165.323431033728
 20
22680.826832383362
 11
29191.724091465971
 21
22680.826832383362
  0
LINE
  8
_0-3_
  6
CONTINUOUS
 62
    2
 10
26165.323431033728
 20
22680.826832383362
 11
26165.323431033728
 21
22440.826832383362
  0
LINE
  8
_0-3_
  6
CONTINUOUS
 62
    2
 10
25765.323431033728
 20
22440.826832383362
 11
25765.323431033728
 21
22680.826832383362
  0
LINE
  8
_1-5_
  6
CONTINUOUS
 62
    7
 10
2990.9039946650296
 20
25035.471427449156
 11
2420.4310050607887
 21
24047.383225108901
  0
LINE
  8
_1-5_
  6
CONTINUOUS
 62
    7
 10
2420.4310050607887
 20
24047.383225108901
 11
2220.4310050607887
 21
24047.383225108901
  0
SOLID
  8
_1-5_
  6
CONTINUOUS
 62
    7
 10
2990.9039946650296
 20
25035.471427449156
 11
2921.7046736918091
 21
24959.953620202858
 12
2940.9039946650296
 22
24948.868887070708
 13
2940.9039946650296
 23
24948.868887070708
  0
LINE
  8
_1-5_
  6
CONTINUOUS
 62
    7
 10
2990.9039946650296
 20
25035.471427449156
 11
2921.7046736918091
 21
24959.953620202858
  0
LINE
  8
_1-5_
  6
CONTINUOUS
 62
    7
 10
2921.7046736918091
 20
24959.953620202858
 11
2940.9039946650296
 21
24948.868887070708
  0
LINE
  8
_1-5_
  6
CONTINUOUS
 62
    7
 10
2940.9039946650296
 20
24948.868887070708
 11
2990.9039946650296
 21
25035.471427449156
  0
TEXT
  8
_1-5_
 62
    5
 10
1300.4310050607899
 20
23947.383225108901
 40
200
 41
1
 50
0
  1
デハイリー
  0
LINE
  8
_1-5_
  6
CONTINUOUS
 62
    7
 10
12655.592424478504
 20
22580.826832383362
 11
12176.10125847886
 21
21750.323771091538
  0
LINE
  8
_1-5_
  6
CONTINUOUS
 62
    7
 10
12176.10125847886
 20
21750.323771091538
 11
11976.10125847886
 21
21750.323771091538
  0
SOLID
  8
_1-5_
  6
CONTINUOUS
 62
    7
 10
12655.592424478504
 20
22580.826832383362
 11
12586.393103505283
 21
22505.309025137063
 12
12605.592424478502
 22
22494.224292004918
 13
12605.592424478502
 23
22494.224292004918
  0
LINE
  8
_1-5_
  6
CONTINUOUS
 62
    7
 10
12655.592424478504
 20
22580.826832383362
 11
12586.393103505283
 21
22505.309025137063
  0
LINE
  8
_1-5_
  6
CONTINUOUS
 62
    7
 10
12586.393103505283
 20
22505.309025137063
 11
12605.592424478502
 21
22494.224292004918
  0
LINE
  8
_1-5_
  6
CONTINUOUS
 62
    7
 10
12605.592424478502
 20
22494.224292004918
 11
12655.592424478504
 21
22580.826832383362
  0
TEXT
  8
_1-5_
 62
    5
 10
11056.10125847886
 20
21650.323771091538
 40
200
 41
1
 50
0
  1
デハイリー
  0
LINE
  8
_1-5_
  6
CONTINUOUS
 62
    7
 10
21798.112441755497
 20
24046.681145906339
 11
22214.116194933893
 21
23326.141509262008
  0
LINE
  8
_1-5_
  6
CONTINUOUS
 62
    7
 10
22214.116194933893
 20
23326.141509262008
 11
22414.116194933893
 21
23326.141509262008
  0
SOLID
  8
_1-5_
  6
CONTINUOUS
 62
    7
 10
21798.112441755497
 20
24046.681145906339
 11
21867.311762728717
 21
23971.163338660041
 12
21848.112441755497
 22
23960.078605527895
 13
21848.112441755497
 23
23960.078605527895
  0
LINE
  8
_1-5_
  6
CONTINUOUS
 62
    7
 10
21798.112441755497
 20
24046.681145906339
 11
21867.311762728717
 21
23971.163338660041
  0
LINE
  8
_1-5_
  6
CONTINUOUS
 62
    7
 10
21867.311762728717
 20
23971.163338660041
 11
21848.112441755497
 21
23960.078605527895
  0
LINE
  8
_1-5_
  6
CONTINUOUS
 62
    7
 10
21848.112441755497
 20
23960.078605527895
 11
21798.112441755497
 21
24046.681145906339
  0
TEXT
  8
_1-5_
 62
    5
 10
22414.116194933893
 20
23226.141509262008
 40
200
 41
1
 50
0
  1
デハイリー
  0
LINE
  8
_1-5_
  6
CONTINUOUS
 62
    7
 10
25962.903503256803
 20
22580.826832383362
 11
26412.762491347745
 21
21801.648208768325
  0
LINE
  8
_1-5_
  6
CONTINUOUS
 62
    7
 10
26412.762491347745
 20
21801.648208768325
 11
26612.762491347745
 21
21801.648208768325
  0
SOLID
  8
_1-5_
  6
CONTINUOUS
 62
    7
 10
25962.903503256803
 20
22580.826832383362
 11
26032.102824230027
 21
22505.309025137063
 12
26012.90350325681
 22
22494.224292004918
 13
26012.90350325681
 23
22494.224292004918
  0
LINE
  8
_1-5_
  6
CONTINUOUS
 62
    7
 10
25962.903503256803
 20
22580.826832383362
 11
26032.102824230027
 21
22505.309025137063
  0
LINE
  8
_1-5_
  6
CONTINUOUS
 62
    7
 10
26032.102824230027
 20
22505.309025137063
 11
26012.90350325681
 21
22494.224292004918
  0
LINE
  8
_1-5_
  6
CONTINUOUS
 62
    7
 10
26012.90350325681
 20
22494.224292004918
 11
25962.903503256803
 21
22580.826832383362
  0
TEXT
  8
_1-5_
 62
    5
 10
26612.762491347745
 20
21701.648208768325
 40
200
 41
1
 50
0
  1
デハイリー
  0
LINE
  8
_1-5_
  6
CONTINUOUS
 62
    7
 10
3269.6849575981901
 20
24835.471427449156
 11
2444.2463743331873
 21
23405.769862706493
  0
LINE
  8
_1-5_
  6
CONTINUOUS
 62
    7
 10
2444.2463743331873
 20
23405.769862706493
 11
2244.2463743331873
 21
23405.769862706493
  0
SOLID
  8
_1-5_
  6
CONTINUOUS
 62
    7
 10
3269.6849575981901
 20
24835.471427449156
 11
3200.4856366249724
 21
24759.953620202858
 12
3219.6849575981901
 22
24748.868887070712
 13
3219.6849575981901
 23
24748.868887070712
  0
LINE
  8
_1-5_
  6
CONTINUOUS
 62
    7
 10
3269.6849575981901
 20
24835.471427449156
 11
3200.4856366249724
 21
24759.953620202858
  0
LINE
  8
_1-5_
  6
CONTINUOUS
 62
    7
 10
3200.4856366249724
 20
24759.953620202858
 11
3219.6849575981901
 21
24748.868887070712
  0
LINE
  8
_1-5_
  6
CONTINUOUS
 62
    7
 10
3219.6849575981901
 20
24748.868887070712
 11
3269.6849575981901
 21
24835.471427449156
  0
TEXT
  8
_1-5_
 62
    5
 10
1324.2463743331855
 20
23305.769862706493
 40
200
 41
1
 50
0
  1
コーキング
  0
LINE
  8
_1-5_
  6
CONTINUOUS
 62
    7
 10
12871.724091465972
 20
22440.826832383376
 11
12137.348949022229
 21
21168.851773855178
  0
LINE
  8
_1-5_
  6
CONTINUOUS
 62
    7
 10
12137.348949022229
 20
21168.851773855178
 11
11937.348949022229
 21
21168.851773855178
  0
SOLID
  8
_1-5_
  6
CONTINUOUS
 62
    7
 10
12871.724091465972
 20
22440.826832383376
 11
12802.524770492755
 21
22365.309025137078
 12
12821.724091465972
 22
22354.224292004932
 13
12821.724091465972
 23
22354.224292004932
  0
LINE
  8
_1-5_
  6
CONTINUOUS
 62
    7
 10
12871.724091465972
 20
22440.826832383376
 11
12802.524770492755
 21
22365.309025137078
  0
LINE
  8
_1-5_
  6
CONTINUOUS
 62
    7
 10
12802.524770492755
 20
22365.309025137078
 11
12821.724091465972
 21
22354.224292004932
  0
LINE
  8
_1-5_
  6
CONTINUOUS
 62
    7
 10
12821.724091465972
 20
22354.224292004932
 11
12871.724091465972
 21
22440.826832383376
  0
TEXT
  8
_1-5_
 62
    5
 10
11017.348949022229
 20
21068.851773855178
 40
200
 41
1
 50
0
  1
コーキング
  0
LINE
  8
_1-5_
  6
CONTINUOUS
 62
    7
 10
21622.802420308253
 20
23846.681145906339
 11
22215.402076522903
 21
22820.268432794717
  0
LINE
  8
_1-5_
  6
CONTINUOUS
 62
    7
 10
22215.402076522903
 20
22820.268432794717
 11
22415.402076522903
 21
22820.268432794717
  0
SOLID
  8
_1-5_
  6
CONTINUOUS
 62
    7
 10
21622.802420308253
 20
23846.681145906339
 11
21692.001741281474
 21
23771.163338660041
 12
21672.802420308253
 22
23760.078605527895
 13
21672.802420308253
 23
23760.078605527895
  0
LINE
  8
_1-5_
  6
CONTINUOUS
 62
    7
 10
21622.802420308253
 20
23846.681145906339
 11
21692.001741281474
 21
23771.163338660041
  0
LINE
  8
_1-5_
  6
CONTINUOUS
 62
    7
 10
21692.001741281474
 20
23771.163338660041
 11
21672.802420308253
 21
23760.078605527895
  0
LINE
  8
_1-5_
  6
CONTINUOUS
 62
    7
 10
21672.802420308253
 20
23760.078605527895
 11
21622.802420308253
 21
23846.681145906339
  0
TEXT
  8
_1-5_
 62
    5
 10
22415.402076522903
 20
22720.268432794717
 40
200
 41
1
 50
0
  1
コーキング
  0
ENDSEC
  0
EOF
